Guitar Tabs for Matlabi

Tabs for Song : Matlabi

matlabi ho ja zara matlabi
E|-----------------------------------------------
B|-----------------------------------------------
G|-----------2-----2--0--2--0--------------2-----
D|--0--2--2--------------------4--2--0--2--------
A|-----------------------------------------------
E|-----------------------------------------------

duniya ki sunta hai kyn
E|--------------------------------
B|--------------------------------
G|--2--0--2--0--------------0-----
D|--------------4--2--0--2--------
A|--------------------------------
E|--------------------------------

khud ki bhisun le kabhi
E|--------------------------------
B|--------------------------------
G|--------------------------------
D|--5--4--5--4--2--0--2--2--4-----
A|--------------------------------
E|--------------------------------

kuch bat galat bhi ho jaye
E|--------5--3--3--2--2--0-----0--2--------
B|--3--3--------------------3--------3-----
G|-----------------------------------------
D|-----------------------------------------
A|-----------------------------------------
E|-----------------------------------------

kuch der ye dil bhi kho jaye
E|--------5--3--3--2--2--0-----0--2--------
B|--3--3--------------------3--------3-----
G|-----------------------------------------
D|-----------------------------------------
A|-----------------------------------------
E|-----------------------------------------

befikar dhadkane is tarha se chale
E|--------0--0--2--------------0--0--2--------
B|--3--3-----------3-----3--3-----------3-----
G|--------------------------------------------
D|--------------------------------------------
A|--------------------------------------------
E|--------------------------------------------

shor gunje yahan se waha
E|-----------0--0-----2--2-----0-----
B|--3-----3--------3--------3--------
G|-----------------------------------
D|-----------------------------------
A|-----------------------------------
E|-----------------------------------

suraj dooba hai yaaron
E|-----------2--0--2-----------
B|--3-----3-----------3--2-----
G|-----------------------------
D|-----------------------------
A|-----------------------------
E|-----------------------------

do ghoont nashe ke maaro
E|--------2--0--2--------
B|--3--3-----------3--2--
G|-----------------------
D|-----------------------
A|-----------------------
E|-----------------------

raste bhula do saare ghar baar ke
E|--------2--0--2--------------0--0-----------
B|--3--3-----------3--2-----3--------3--3-----
G|--------------------------------------------
D|--------------------------------------------
A|--------------------------------------------
E|--------------------------------------------

aata pata rahe na kisi ka hume
E|-----------------------0-----------------------
B|--2--3-----2--3-----2-----3--2--0--2--3--3-----
G|-----------------------------------------------
D|-----------------------------------------------
A|-----------------------------------------------
E|-----------------------------------------------

yahi kahe ye pal zindgi ka hume

E|-----------------------0--------------------------
B|--2--3-----2--3-----2-----3--2--0--2--3--3--------
G|--------------------------------------------------
D|--------------------------------------------------
A|--------------------------------------------------
E|--------------------------------------------------

aata pata rahe na kisi ka hume
E|-----------------------0-----------------------
B|--2--3-----2--3-----2-----3--2--0--2--3--3-----
G|-----------------------------------------------
D|-----------------------------------------------
A|-----------------------------------------------
E|-----------------------------------------------

yahi kahe ye pal zindgi ka hume
E|-----------------------0-----------------------
B|--2--3-----2--3-----2-----3--2--0--2--3--3-----
G|-----------------------------------------------
D|-----------------------------------------------
A|-----------------------------------------------
E|-----------------------------------------------

ki khudgarz si khwahish liye
E|-----2-----2--2--0-----2-----2--5--0-----
B|--2--------------------------------------
G|-----------------------------------------
D|-----------------------------------------
A|-----------------------------------------
E|-----------------------------------------

be saans bhi hum tum jeeye
E|--2--2--2--0-----2--2--5--0-----
B|--------------------------------
G|--------------------------------
D|--------------------------------
A|--------------------------------
E|--------------------------------

hai gulabi gulabi samaa..
E|--------0--0--------2--2-----0-----
B|-----0-----------3--------3--------
G|--2--------------------------------
D|-----------------------------------
A|-----------------------------------
E|-----------------------------------

suraj dooba hai yaaron
E|-----------2--0--2-----------
B|--3-----3-----------3--2-----
G|-----------------------------
D|-----------------------------
A|-----------------------------
E|-----------------------------

do ghoont nashe ke maaro
E|-----------2--0--2-----------
B|--3-----3-----------3--2-----
G|-----------------------------
D|-----------------------------
A|-----------------------------
E|-----------------------------

raste bhula do saare ghar baar ke
E|--------2--0--2--------------0--0-----------
B|--3--3-----------3--2-----3--------3--3-----
G|--------------------------------------------
D|--------------------------------------------
A|--------------------------------------------
E|--------------------------------------------
tabs and chords, guitar tabs, music contests, music covers, songsterr, reverbnation, renditions, tabulature, bollywood chords, ultimate guitar, yousician, guitar lessons, torrins, fender, gibson, acoustic guitar, electric guitar, youtube covers, gootar, guitar tuner, A-Z tabs, 911 tabs