Guitar Tabs for Locha e ulfat

Tabs for Song : Locha E Ulfat

iklauta mera dil tha
E|-----------------------------
B|-----0--1--3--1--0--1--0-----
G|--2--------------------------
D|-----------------------------
A|-----------------------------
E|-----------------------------

bhola bhala simple tha
E|-----------------------------
B|-----0--1--3--1--0--1--0-----
G|--2--------------------------
D|-----------------------------
A|-----------------------------
E|-----------------------------

tujhse mein takraya,sirphira ho gaya
E|--------0--1--0-----0-----------------------------
B|--1--3-----------3-----3-----3--3--1--1--1--0-----
G|--------------------------------------------------
D|--------------------------------------------------
A|--------------------------------------------------
E|--------------------------------------------------

mujhe payaar laga jo 
E|-----------------------------
B|-----0--1--3--1--0--1--0-----
G|--2--------------------------
D|-----------------------------
A|-----------------------------
E|-----------------------------

tujhe laga bhai chara
E|-----------------------------
B|-----0--1--3--1--0--1--0-----
G|--2--------------------------
D|-----------------------------
A|-----------------------------
E|-----------------------------

aarmaan to jaage mein mager so gaya
E|--------0--1--0-----0-----------------------------
B|--1--3-----------3-----3-----3--3--1--1--1--0-----
G|--------------------------------------------------
D|--------------------------------------------------
A|--------------------------------------------------
E|--------------------------------------------------

banke musibat
E|-----0-----------0-----
B|--------3--1--3--------
G|--2--------------------
D|-----------------------
A|-----------------------
E|-----------------------

piche padi hai
E|-----0-----------0-----
B|--------3--1--3--------
G|--2--------------------
D|-----------------------
A|-----------------------
E|-----------------------

ye comedy hai 
E|-----------------------
B|-----0-----------0-----
G|--------2--0--2--------
D|--2--------------------
A|-----------------------
E|-----------------------

ya tragedy hai
E|-----------------------
B|-----0-----------0-----
G|--------2--0--2--------
D|--2--------------------
A|-----------------------
E|-----------------------

na hona tha kyon ho gaya
E|--3--1--0-----------0-----0-----
B|-----------3--1--3-----3--------
G|--------------------------------
D|--------------------------------
A|--------------------------------
E|--------------------------------

loocha e-ulfat ho gaya
E|--3--0-----------------------
B|--------3--1--3--------------
G|-----------------0--2--2-----
D|-----------------------------
A|-----------------------------
E|-----------------------------

tabs and chords, guitar tabs, music transcription, music technology, deep learning, music information retrieval, transcribe into tabs & chords, chordify, music renditions, songsterr, reverbnation, tabulature, bollywood chords, ultimate guitar, yousician, guitar lessons, acoustic guitar, electric guitar, guitar tuner, 911 tabs