Guitar Tabs for Lawn Chairs

(/) Slide Up  (\) Slide Down  (h) Hammer On  (p) Pull Off  (b) Bend (r) Release (v) Vibrato

Tabs for Song : 

E|--------0-----------------------0-----------------------0--------------------------1--------------
B|--0-----------------------3-----------------------1-----------------------------1-----------------
G|-----0-----------------------0-----------------------0--------------------------------------------
D|-----------------------------------------------------------2-----------------3--------------------
A|--3-----------------------2-----------------------0-----------------------1-----------------------
E|--------------------------------------------------------------------------------------------------

Song lyrics here
E|--0-----------0--------------------------------0--0--------0--------------0--------3--------------
B|--------1-----------0-----3-----3-----1-----1-----------1-----------------------0-----------------
G|-----2-----2-----0-----0-----2-----2-----2-----------2-----------------------0--------------------
D|--2-----------------------------------------------2-----------------------------------------------
A|--------------------------3-----2-----0-----------------------------------------------------------
E|--------------0-----------------------------------------------------------0-----------------------

E|--0-----------0--------------------------------0--0--------0--------------0--------3--------------
B|--------1-----------0-----3-----3-----1-----1-----------1-----------------------0-----------------
G|-----2-----2-----0-----0-----2-----2-----2-----------2-----------------------0--------------------
D|--2-----------------------------------------------2-----------------------------------------------
A|--------------------------3-----2-----0-----------------------------------------------------------
E|--------------0-----------------------------------------------------------0-----------------------

E|--0-----------0--------------------------------0--0--------0--------------0--------3--------------
B|--------1-----------0-----3-----3-----1-----1-----------1-----------------------0-----------------
G|-----2-----2-----0-----0-----2-----2-----2-----------2-----------------------0--------------------
D|--2-----------------------------------------------2-----------------------------------------------
A|--------------------------3-----2-----0-----------------------------------------------------------
E|--------------0-----------------------------------------------------------0-----------------------

E|--------0-----------------------0-----------------------0--------------------------1--------------
B|--0-----------------------3-----------------------1-----------------------------1-----------------
G|-----0-----------------------0-----------------------0--------------------------------------------
D|-----------------------------------------------------------2-----------------3--------------------
A|--3-----------------------2-----------------------0-----------------------1-----------------------
E|--------------------------------------------------------------------------------------------------

E|--0-----------0--------------------------------0--0--------0--------------0--------3--------------
B|--------1-----------0-----3-----3-----1-----1-----------1-----------------------0-----------------
G|-----2-----2-----0-----0-----2-----2-----2-----------2-----------------------0--------------------
D|--2-----------------------------------------------2-----------------------------------------------
A|--------------------------3-----2-----0-----------------------------------------------------------
E|--------------0-----------------------------------------------------------0-----------------------

E|--0-----------0--------------------------------0--0--------0--------------0--------3--------------
B|--------1-----------0-----3-----3-----1-----1-----------1-----------------------0-----------------
G|-----2-----2-----0-----0-----2-----2-----2-----------2-----------------------0--------------------
D|--2-----------------------------------------------2-----------------------------------------------
A|--------------------------3-----2-----0-----------------------------------------------------------
E|--------------0-----------------------------------------------------------0-----------------------

E|--0-----------0--------------------------------0--0--------0--------------0--------3--------------
B|--------1-----------0-----3-----3-----1-----1-----------1-----------------------0-----------------
G|-----2-----2-----0-----0-----2-----2-----2-----------2-----------------------0--------------------
D|--2-----------------------------------------------2-----------------------------------------------
A|--------------------------3-----2-----0-----------------------------------------------------------
E|--------------0-----------------------------------------------------------0-----------------------

E|-----------0-----------------------0-----------------------0-----------------------1-----------
B|--0-----------------------3--------------3--------1-----------------------------1--------------
G|-----0-----------------------0-----------------------0-----------------------------------------
D|--------2-----------------------0-----------------------2--------------------3-----------------
A|--3-----------------------2-----------------------0-----------------------1--------------------
E|-----------------------------------------------------------------------------------------------


tabs and chords, guitar tabs, music transcription, music technology, deep learning, music information retrieval, transcribe into tabs & chords, chordify, music renditions, songsterr, reverbnation, tabulature, bollywood chords, ultimate guitar, yousician, guitar lessons, acoustic guitar, electric guitar, guitar tuner, 911 tabs