Guitar Tabs for Saanso Ko - Arijit Singh Tabs

Tabs for Song : Saanso Ko 

saanso ko jeene ka ishara mil gya
E|--------------------------------------------------------
B|--------------1-----------------------------------------
G|--0--2--2--------3--2--0--0-----------0--2--0-----------
D|--------------------------------3--3-----------3--2-----
A|--------------------------------------------------------
E|--------------------------------------------------------

dooba mein tujhme to kinara mil gya
E|--------------------------------------------------------
B|--------------------------------------------------------
G|--2--3--0--2-----3--2--0--0-----------0--2--0-----------
D|-----------------------------3--3--------------3--2-----
A|--------------------------------------------------------
E|--------------------------------------------------------

saanso ko jeene ka ishara mil gaya
E|--------------------------------------------------------
B|--------------1-----------------------------------------
G|--0--2--2--------3--2--0--0-----------0--2--0-----------
D|--------------------------------3--3-----------3--2-----
A|--------------------------------------------------------
E|--------------------------------------------------------

zindgi ka pata doobara mil gaya
E|--------------------------------------------------------
B|--------------------------------------------------------
G|--2--3--0--2-----3--2--0--0-----------0--2--0-----------
D|-----------------------------3--3--------------3--2-----
A|--------------------------------------------------------
E|--------------------------------------------------------

tu mila to khuda ka sahaara mil gaya
E|-----0--1--0-----------0-----0-----------------1--0--------------
B|--3--------------3--3-----3-----3--1-----1--------------3--3-----
G|--------------------------------------3-----3--------------------
D|-----------------------------------------------------------------
A|-----------------------------------------------------------------
E|-----------------------------------------------------------------

ghamzada ghamzada dil ye tha ghamzada
E|--------------1--0--------------------------------------
B|--------3-----------3--1-----------------3--1-----------
G|--2--3-----------------------0--2--3-----------3--2-----
D|--------------------------------------------------------
A|--------------------------------------------------------
E|--------------------------------------------------------

bin tere bin tere dil ye tha ghamzada
E|--------------1--0-----------------------------------
B|--------3-----------3--1--------------3--1-----------
G|--2--3-----------------------0--2--3--------3--2-----
D|-----------------------------------------------------
A|-----------------------------------------------------
E|-----------------------------------------------------
tabs and chords, guitar tabs, music contests, music covers, songsterr, reverbnation, renditions, tabulature, bollywood chords, ultimate guitar, yousician, guitar lessons, torrins, fender, gibson, acoustic guitar, electric guitar, youtube covers, gootar, guitar tuner, A-Z tabs, 911 tabs