Guitar Tabs for Kathang Isip - Ben&ben

(/) Slide Up  (\) Slide Down  (h) Hammer On  (p) Pull Off  (b) Bend (r) Release (v) Vibrato (x) Muted

This is actually for bass guitar
based on:
https://www.youtube.com/watch?v=TrHfgc2pZVU 
credits on the Genesis
hindi po kumpleto yan hehe lalo na yung dulo
BPM : 200

Pre Chorus
E|-----------x--------------------------x-----------------------------------------x-----------------------------------------
B|-----------x--------------------------x-----------------------------------------x-----------------------------------------
G|-----------x--------------------------x-----------------------------------------x-----------------------------------------
D|-----------x--3--5--------5--7--3-----x--3-----------3--5-----------------------x-----------------------------------------
A|--3-----1--x-----------3-----------1--x-----1-----3-----------1--1--1--3--------x--1--3--3-----5--5-----6--6-----8--------
E|-----1-----x--------3-----------------x--------3-----------1--------------3--3--x-----------6--------6--------6------8\1--

Chorus
E|-----------x-----------------x-----------x-----------------------
B|-----------x-----------------x-----------x-----------------------
G|--------8--x--8--10-12-10-8--x--------8--x--8--10-12-10-8--------
D|--8--6-----x-----------------x--8--6-----x-----------------------
A|-----------x-----------------x-----------x-----------------------
E|-----------x-----------------x-----------x-----------------10\3--

Interlude

E|--------------------------------------------------------------------------------------
B|--------------------------------------------------------------------------------------
G|--------------------------------------------------------------------------------------
D|--------------------------------------------------3-----------------------------------
A|--------3--3-----3-----3-----3-----------------3--------3--3-----3-----3-----3--------
E|-----3--------3-----3-----3-----3--3--3--1--1--------1--------3-----3-----3-----3-----

E|-----------------------
B|-----------------------
G|-----------------------
D|-----------------------
A|-----0-----1--0--------
E|--3-----1--------1-----

Verse 2
E|--------------------------------------------------x-----------------------------------------x-------
B|--------------------------------------------------x-----------------------------------------x-----
G|--------10-8--7--8--7-----------------------------x-----------------------------------------x-----
D|-----8--------------------------------------------x-----------------------------------------x-----
A|--6--------------------1--1-----1-----1--3--1--6--x-----6-----6-----6--8--1--1--1--1--1--6--x-----
E|-----------------------------1-----1--------------x--6-----6-----6--------------------------x-----


E|--------------------------------------------------------------------------------
B|--------------------------------------------------------------------------------
G|--------------------10-8--------------------------------------------------------
D|-----------------8--------------------------------------------------------------
A|--------6-----6-----------1-----------1--3--3-----5--5-----5-----6-----8--------
E|-----6-----6-----------------3--1--3-----------6--------6-----6-----6------8\1--

Chorus

E|-----------------------------------x-----------------------------x--------------------------------
B|-----------------------------------x-----------------------------x--------------------------------
G|-----------------------------------x-----------------------------x--------------------------------
D|-----------------------------------x-----------------------------x--------------------------------
A|-----1--1-----------6-----6-----6--x--10-8--6-----6-----6-----6--x--1-----6-----6-----6-----6-----
E|--1--------4--4--6-----6-----6-----x-----------6-----6-----6-----x-----4-----6-----6-----6--------

E|--------------------------------------------------
B|--------------------------------------------------
G|--------------------------------------------------
D|-----12-10-8--------------------------------------
A|--10----------8-----8-----8--6-----6-----6-----6--
E|-----------------8-----8--------6-----6-----6-----

Bridge

E|--------------------------------------------------x--------------------------------------------x--
B|--------------------------------------------------x--------------------------------------------x--
G|--------------------------------------------------x--------------------------------------------x--
D|--------------------------------------------------x--------------------------------------------x--
A|-----8--8-----8-----8-----------8-----8--------8--x--8--8-----8-----8-----------8-----8--------x--
E|-----------8-----8-----8--8--8-----8-----8--8-----x--------8-----8-----8--8--8-----8------8\1--x--

E|-----------------------------------------------------------------x-----------------------------------------
B|-----------------------------------------------------------------x-----------------------------------------
G|-----------------------------------------------------------------x-----------------------------------10-12-
D|--------------------------------------------3--5-----------------x-----------------------------8--10-------
A|--8-----8-----8-----8-----6--8--10-------1-----------6-----6--1--x-----6-----6-----6-----6--8--------------
E|-----8-----8-----8-----8-----------10-1-----------6-----6--------x--------6-----6-----6--------------------

ending 

E|-----
B|-----
G|-----
D|-----
A|-----
E|--6--


tabs and chords, guitar tabs, music transcription, music technology, deep learning, music information retrieval, transcribe into tabs & chords, chordify, music renditions, songsterr, reverbnation, tabulature, bollywood chords, ultimate guitar, yousician, guitar lessons, acoustic guitar, electric guitar, guitar tuner, 911 tabs