Bass Tabs for Kathang Isip Bass

(/) Slide Up  (\) Slide Down  (h) Hammer On  (p) Pull Off  (b) Bend (r) Release (v) Vibrato (x) Muted

Tabs for Song : 

Song lyrics here


G|-----------------------------------------------------------------------------------
D|-----------3--5-----------5--7--3--------3--------------3--5-----------------------
A|--3--1--------------1--------------1--------1-----3--------------1-----1--1--3-----
E|--

G|-----------------------------------------------------
D|-----------------------------------------------------
A|--1--3--3--------5--5--------6--6--------8-----------
E|--------------6-----------6-----------6--------8--1--

G|--------8-----8--10/12----10-8--------------8-----8--10/12----10-8-----------
D|--8--6--------------------------------8--6-----------------------------------
A|-----------------------------------------------------------------------3-----
E|--------------------------------------------------------------------------1--

G|--------------------------------------------------------------------
D|-----------------------------------------------------------3--------
A|-----3--3--------3-----3-----3--------------------------3-----------
E|--3-----------3-----3-----3--------3--3-----3--1--1--------------1--

G|-----------------------------------------------------------------------
D|-----------------------------------------------------------------------
A|--3--3--------3-----3--------3--------------1-----1--0-----1--0-----6--
E|-----------3-----3--------3-----3--3-----3-----1--------1--------1-----

G|-----10----8--7--8--7--------------------------------
D|--8--------------------------------------------------
A|--------------------------1-----1--------3--1-----6--
E|-----------------------------1-----1-----------------

G|--------------------------------------------------
D|--------------------------------------------------
A|-----6-----6-----6-----8--1-----1--1-----1-----6--
E|--6-----6-----6-----------------------1-----------

G|-----------------------------------------
D|-----------------8--10-8-----------------
A|-----6-----6-----------------1-----------
E|--6-----6-----------------------3--1--3--

G|-----------------------------------------------
D|-----------------------------------------------
A|--1--3--3--------5--------6--------8-----------
E|--------------6--------6--------6--------8--1--

G|--------------------------------------------------------------
D|--------------------------------------------------------------
A|-----1--1--------------6--------6-----6------6/8--10-8--10-6--
E|--1--------4--4-----6--------6-----6-----6--------------------

G|-----------------------
D|-----------5--8--10-8--
A|-----6--8--------------
E|--6--------------------

G|-----------------------------------------------------------------------
D|-----------------------------------------12-10-8-----------------------
A|--1-----6--------6-----6-----6--8--10----------------8-----8-----8--6--
E|-----4--------6-----6-----6-----------------------------8-----8--------

G|--------------------
D|--------------------
A|-----6-----6-----6--
E|--6-----6-----6-----

G|-----------------------------------------------------------------
D|-----------------------------------------------------------------
A|--8--8--------8-----8--------8-----------------8--10-8-----------
E|-----------8-----8--------8-----8--8-----8--8--------------10-8--

G|--------------------------------------------------
D|--------------------8--10-8--------------------10-
A|--8--------8-----8--------------10----------10----
E|--------8-----8--------------------8--8-----------

G|--------------------------------------------------------------
D|-----------------------------------------------10-------------
A|--8--------8-----8--------8-----------6--8--10----------8-----
E|--------8-----8--------8--------10-------------------8-----6--

G|-----------------------------------------------
D|--------------------3-----3--5--3--------------
A|-----1-----1-----3--------------------5--3--5--
E|--1--------------------------------------------

G|-----------------------------------
D|-----------------------------3--5--
A|-----6-----6-----1--1--3-----------
E|--6-----6--------------------------

G|-----------------------------------10-12-
D|-----------------------------8--10-------
A|--6-----6-----6-----6--8-----------------
E|-----6-----6-----6-----------------------

G|--------8------8/10-12-10-8-----------
D|--8--6--------------------------------
A|-----------------------------------6--
E|--------------------------------6-----

G|-----------------------------------------------------------
D|--------------------------------------------8-----8--10-8--
A|-----1--1-----------6--------6--6--8--10-------------------
E|--1--------4--4-----------6--------------------------------

G|-----------------------------------------------
D|--------------8--10-8--------------------8--10-
A|-----10-8-----------------10-8--6-----8--------
E|--10-------------------------------------------

G|-----
D|-----
A|--6--
E|-----




Paste any tab in acousterr's tab maker and we'll play it !!!
Now supports capo and sound effects for vibrato/pull-off/hammer/bends/mutes etc !!! Checkout help section
tabs and chords, guitar tabs, music transcription, music technology, deep learning, music information retrieval, transcribe into tabs & chords, chordify, music renditions, songsterr, reverbnation, tabulature, bollywood chords, ultimate guitar, yousician, guitar lessons, acoustic guitar, electric guitar, guitar tuner, 911 tabs