Guitar Tabs for Kathang Isip

(/) Slide Up  (\) Slide Down  (h) Hammer On  (p) Pull Off  (b) Bend (r) Release (v) Vibrato (x) Muted

Tabs for Song : capo on 3rd fret

Song lyrics here
E|--------------------------------------------------------0--2-----3--------------------------------------------------
B|-----------0---1p0------------------1/3--------3-----3--------------------------0---1p0-----------------------------
G|-----------------------0--------0--------------4-----4--------------------------------------0-----0-----------0-----
D|-----0--0------------------0p2--------------0-----0-----------------------0--0-----------------2-----------0-----0--
A|--3-----------------3--------------------------------------------------3-----------------3-----------2--------------
E|-----------------------------------------5-----------5--------5-----------------------------------------5-----------

E|--------------------------------------------------------------------------------------------------------------------
B|-----------------------0-----------------0--------------0--0-----------------------------0-----------------0--------
G|--0-----------0--2--------------0--2-----------0-----2--------0-----------------0--2--------------0--2-----------0--
D|---------0p2--------------2--2--------------2--------0-----------0---------0p2--------------2--2--------------2-----
A|--------------------0-----------------0-----------------------------------------------0-----------------0-----------
E|-----5-----------------------------------------------5--------------5-----------------------------------------------

E|--------------------------------0--------------0--------------------------------------------------------0--------
B|-----3--3--------------3--3--0--------3--0--3-----0---------------1/3-----0--3---3/5--------------------1--------
G|--2--------0--2-----------------------------------------0-----0-----------------------0-----------0-----0-----0--
D|--0-----------0--------------------------------------------2--------------------------------2--2-----2-----------
A|-----------------------------------0-----------------0--------------------------------------------------0--0-----
E|--5--------------5-----------------------------------------------------5-----------------2-----------------------

E|--------------------------------------------------------------------------------------------------------------0--
B|-----3--------------------0---1p0--0--------------------3------------------1/3--------3-----------3--3--3--3-----
G|-----2-----0-----------------------------2--------2--0--2--------------0--------------4-----0--------------------
D|-----------------2--2--2--------------------0-----------4-----0--0--0--------------0-----0-----------------------
A|--0--2--2-----2--3-----------------------------------------------------------------------------------------------
E|--------------------------------------0--------0--------0-----------------------5--------------3-----------3-----

E|---2/3-----0-----------0-----------------------------------------------0--------------------------------------------
B|--------------3-----0--------3---0p---0--1--0---------------3p0--3--------0------------------------------------1/3--
G|--------------------------------------------------0-----0---2p-------------------2p0-----0-----------------0--------
D|-----------------------------------------------------2------0p------------------------2--------0--0--0--0-----------
A|--------3--------3--------3------3p5-----------------------------------------3--------------3-----------3-----------
E|-----------------------------------------------2------------0p------0-----------------------------------------------

E|--------------0--------------------0---2/3-----0-----------0-----------------------------------------------0--------
B|--------3--------3-----3--3--3--3-----------------3-----0--------3---0p---0--1--0---------------3p0--3--------0-----
G|--------4--0--------------------------------------------------------------------------0-----0---2p------------------
D|-----0-----------------------------------------------------------------------------------2------0p------------------
A|--------------------------------------------3--------3--------3------3p5-----------------------------------------3--
E|--5-----------------3-----------3--------------------------------------------------2------------0p------0-----------

E|-----------------------------
B|-----0---------0p1--0--------
G|--2--------0---0p------2--0--
D|--------2--------------------
A|---------------3p------------
E|-----------------------------

Song lyrics here
E|--
B|--
G|--
D|--
A|--
E|--

Paste any tab in acousterr's tab maker and we'll play it !!!
Now supports capo and sound effects for vibrato/pull-off/hammer/bends/mutes etc !!! Checkout help section
tabs and chords, guitar tabs, music transcription, music technology, deep learning, music information retrieval, transcribe into tabs & chords, chordify, music renditions, songsterr, reverbnation, tabulature, bollywood chords, ultimate guitar, yousician, guitar lessons, acoustic guitar, electric guitar, guitar tuner, 911 tabs