Guitar Tabs for Kathang Isip

(/) Slide Up  (\) Slide Down  (h) Hammer On  (p) Pull Off  (b) Bend (r) Release (v) Vibrato (x) Muted

Tabs for Song : 
BPM : 200

Song lyrics here
F|-----0-----------------------------0--2--3-----
C|-----0--3--0---1p0-----------3--3--------------
G|-----0-----0---------2p0-----------------------
D|--------------------------------------4--5-----
A|--3-----------------------------------------3--
F|--------------------------3-----3--------------

F|-----0--------------------------------
C|-----0--3--0---1p0-----------0---1p0--
G|-----0-----0---------2p0---------0p---
D|--------------------------------------
A|--3-----------------------------------
F|--------------------------3-----------

F|--------------------------------------0-----2-----3-----
C|-----------0--1---1p0-----------3--3--------------------
G|-----------------------0-----0--0-----------------------
D|------0h2-----------------2-----------------------------
A|--3-----------------------------------------------------
F|--------------------------------3--3-----3-----3-----3--

F|--
C|--
G|--
D|--
A|--
F|--

Song lyrics here
F|--
C|--
G|--
D|--
A|--
F|--

Paste any tab in acousterr's tab maker and we'll play it !!!
Now supports capo and sound effects for vibrato/pull-off/hammer/bends/mutes etc !!! Checkout help section







tabs and chords, guitar tabs, music transcription, music technology, deep learning, music information retrieval, transcribe into tabs & chords, chordify, music renditions, songsterr, reverbnation, tabulature, bollywood chords, ultimate guitar, yousician, guitar lessons, acoustic guitar, electric guitar, guitar tuner, 911 tabs