Bass Tabs for Kaksi Tavallista Kättä

(/) Slide Up  (\) Slide Down  (h) Hammer On  (p) Pull Off  (b) Bend (r) Release (v) Vibrato (x) Muted

Kaksi tavallista kättä
Hän ei mitään pyhimystä kaipaa sädekehineen, `tee se itse`-yritystä yltää taivaaseen. Tavallisen taapertajan Hän vie työhön pellolleen, kurjimmankin savimajan Hän voi tehdä kirkokseen.
Song lyrics here
G|-----------------------------------------------------------------------------------------------------------------------------------------------------------------------------------------
D|--------------------------------------------------------------------------------------------------------------------------------------------------------------------0--------------------
A|-----2--------------------------------------------0--------------------------------------2-----------------------------------------------------------------------------------------------
E|-----------------------------0-----------------------------------2--------------------------------------------------0-----------------------2-----------------------------------------0--
Kerto:
       Kaksi tavallista kättä Jeesus työhön lähettää. Kuinka paljon tekemättä ilman niitä täällä jää! Kaksi :|uudelleen.
             
Song lyrics here
G|--------------------------------------------------------------------------------------------------------------------
D|--------------------------------------------------0-----------------------------------------------0-----------------
A|-----------0-----------------------------------------------0--------------------------------------------------------
E|--0--------------------0-----------2-----------------------------------0-----------2-----0-----------------------0--


tabs and chords, guitar tabs, music transcription, music technology, deep learning, music information retrieval, transcribe into tabs & chords, chordify, music renditions, songsterr, reverbnation, tabulature, bollywood chords, ultimate guitar, yousician, guitar lessons, acoustic guitar, electric guitar, guitar tuner, 911 tabs