Guitar Tabs for Kabhi Alvida Na Kehna - Sonu Nigam Tabs

(/) Slide Up  (\) Slide Down  (h) Hammer On  (p) Pull Off  (b) Bend (r) Release (v) Vibrato

Tabs for Song : Kabhi Alvida Na Kehna

Tum Ko Bhi Hai Khabar Mujhko Bhi Hai Pata
E|--------------------------------------------------
B|-----10-11-10----13-11-10----11-10----------------
G|--12----------12----------10-------12-9--9---9/10-
D|--------------------------------------------------
A|--------------------------------------------------
E|--------------------------------------------------

Dur Jaake Bhi Mujhse
E|---8/10-10/12h---------------------
B|-----------------13-11----10-10/11-
G|-----------------------12----------
D|-----------------------------------
A|-----------------------------------
E|-----------------------------------

Tum Meri Yaadon Main Rehna
E|---8/10-10/12h---------------------------
B|-----------------13----11-10----10-------
G|--------------------12-------12----12-10-
D|-----------------------------------------
A|-----------------------------------------
E|-----------------------------------------

Kabhi Alvida Naa Kehna
E|--------------------------------------
B|--10-11----11/13-13-13-11-10----------
G|-----------------------------12-10-12-
D|--------------------------------------
A|--------------------------------------
E|--------------------------------------

Kabhi Alvida Naa Kehna
E|-----------------------------------------------
B|--------13----13-13-11-10----------10-11-10----
G|--10-12-------------------12-10-12----------12-
D|-----------------------------------------------
A|-----------------------------------------------
E|-----------------------------------------------

Kabhi Alvida Naa Kehna
E|--------------------------------
B|-----13-11-11-11----10----------
G|--12-------------12----12-10-10-
D|--------------------------------
A|--------------------------------
E|--------------------------------
tabs and chords, guitar tabs, music transcription, music technology, deep learning, music information retrieval, transcribe into tabs & chords, chordify, music renditions, songsterr, reverbnation, tabulature, bollywood chords, ultimate guitar, yousician, guitar lessons, acoustic guitar, electric guitar, guitar tuner, 911 tabs