Guitar Tabs for Main Hoon Na - Sonu Nigam Tabs

(/) Slide Up  (\) Slide Down  (h) Hammer On  (p) Pull Off  (b) Bend (r) Release (v) Vibrato

Tabs for Song : Main Hoon Na

Intro
E|-----------------------------------
B|--11-9-----------------------6-----
G|--------11-10-8-----8--6--8-----8--
D|-----------------8-----------------
A|-----------------------------------
E|-----------------------------------

Intro
E|--------------------------------6-----
B|--11-9-----------------------6--------
G|--------11-10-8-----8--6--8--------8--
D|-----------------8--------------------
A|--------------------------------------
E|--------------------------------------

Intro
E|--6--7---6/-7h---6--7--6--7-----
B|--------------9--------------9--
G|--------------------------------
D|--------------------------------
A|--------------------------------
E|--------------------------------

Intro
E|--------------------7--7--6--7--6--
B|--------4-----4--6-----------------
G|--4--6-----6-----------------------
D|-----------------------------------
A|-----------------------------------
E|-----------------------------------

Kiska Hai Ye Tumko Intezaar Main Hoon Na
E|--------------------------------------------------------------
B|--4-----4--5--7--5---4/-5h---------------------------------4--
G|--------------------------6--6--6---4/6--6--6--6--4--4--6-----
D|--------------------------------------------------------------
A|--------------------------------------------------------------
E|--------------------------------------------------------------

Dekh Lo Idhar To Ek Baar Main Hoon Na (Same As Previous One)

Khaamosh Kyun Ho Jo Bhi Kahna Hai Kaho
E|--------4--4--3--4--4--4--3--4--4--6--6-----
B|--4--5-----------------------------------4--
G|--------------------------------------------
D|--------------------------------------------
A|--------------------------------------------
E|--------------------------------------------

Dil Chahe Jitna Pyar Utna Maang Lo (Same As Previous One)

Ho…Tumko Milega Utna Pyar Main Hoon Na Aa
E|---4/7--7--6--4--------------------------4--6--------------
B|-----------------7--6--6--6-----6--6--7--------4--5--7--4--
G|-----------------------------6-----------------------------
D|-----------------------------------------------------------
A|-----------------------------------------------------------
E|-----------------------------------------------------------

Kiska Hai Ye Tumko Intezar Main Hoon Na
E|--------------------------------------------------------
B|--4--5--7--5---4/-5h---------------------------------4--
G|--------------------6--6--6---4/6--6--6--6--4--4--6-----
D|--------------------------------------------------------
A|--------------------------------------------------------
E|--------------------------------------------------------

Dekh Lo Idhar To Ek Baar Main Hoon Na
E|-----------------------------------------------
B|--4--5--7--5---4/-5h---------------------7-----
G|--------------------6--6--6---4/6--6--4-----8--
D|-----------------------------------------------
A|-----------------------------------------------
E|-----------------------------------------------
tabs and chords, guitar tabs, music contests, music covers, songsterr, reverbnation, renditions, tabulature, bollywood chords, ultimate guitar, yousician, guitar lessons, torrins, fender, gibson, acoustic guitar, electric guitar, youtube covers, gootar, guitar tuner, A-Z tabs, 911 tabs