Guitar Tabs for Kabhi Na Kabhi

(/) Slide Up  (\) Slide Down  (h) Hammer On  (p) Pull Off  (b) Bend (r) Release (v) Vibrato (x) Muted

Tabs & Chords
BPM : 110.0
C|-----
G|--15-
D|-----
A|-----
F|-----
C|-----

Check Track 2 for Chord Positions 

    C#m                                          A                                      B     
C|-----------------------------------------0-----------------------------------2-----------------------------------------------
G|-----------------------------------2--4-----2--4--2--0--2--0-----0-----------------------------0--2-----0--0-----------0--2--
D|-----------9-----12----16-------------------------------------2-----2--1--1-----------2-----------------------3--2-----------
A|--3--5--7-----------15----17-19-21----------------------------------------------4--2-----------------------------------------
F|--------------12----------------------------------------------------------------------------0--------------------------------
C|-----------------------------------------------------------------------------------------------------------------------------

                                     E                    G#                         C#m      
C|--------------------------------------------------------------------2--2--0--------------4--
G|-----0--2--0-----0--------------------------------------0--0-----------------4--4--2--------
D|--------------2-----2--1--2--1-----------------2--1-----------1-----------------------------
A|-----------------------------------4-----2--------------------------------------------------
F|--------------------------------------------------------------------------------------------
C|--------------------------------------------------------------------------------------------

                                        A                                                  B  
C|--0-----------------------------------------------------------------------------------------
G|-----2-----2--0--2--0-----0-----------------------------------2--0-----------------------0--
D|-----------------------------2--1-----------------------------------2-----------------------
A|--------------------------------------4--2--------------------------------------------------
F|--------------------------------------------0--0--0--------0--------------0-----0--1--1-----
C|-----------------------------------------------------0-----------------0--------------------

                                                 
C|-----------------------------------------------
G|--2--4--0--2--3-----0--------------------------
D|-----------------2--------1--2--1--------------
A|--------------------------------------------2--
F|-----------------------------------------------
C|--------------------------------------2--2-----











Guitar Tabs for Kabhi Na Kabhi






    C#m                                          A                                      B     
E|--4--------------------------------------------0--------------------------------------2-----
B|--5--------------------------------------------2--------------------------------------4-----
G|--6--------------------------------------------2--------------------------------------4-----
D|--6--------------------------------------------2--------------------------------------4-----
A|--4--------------------------------------------0--------------------------------------2-----
E|--------------------------------------------------------------------------------------------

                                     E                    G#                         C#m      
E|-----------------------------------0--------------------4--------------------------4--------
B|-----------------------------------0--------------------4--------------------------5--------
G|-----------------------------------1--------------------5--------------------------6--------
D|-----------------------------------2--------------------6--------------------------6--------
A|-----------------------------------2--------------------6--------------------------4--------
E|-----------------------------------0--------------------4-----------------------------------

                                        A                                                  B  
E|--------------------------------------0--------------------------------------------------2--
B|--------------------------------------2--------------------------------------------------4--
G|--------------------------------------2--------------------------------------------------4--
D|--------------------------------------2--------------------------------------------------4--
A|--------------------------------------0--------------------------------------------------2--
E|--------------------------------------------------------------------------------------------

                                                 
E|-----------------------------------------------
B|-----------------------------------------------
G|-----------------------------------------------
D|-----------------------------------------------
A|-----------------------------------------------
E|-----------------------------------------------

tabs and chords, guitar tabs, music transcription, music technology, deep learning, music information retrieval, transcribe into tabs & chords, chordify, music renditions, songsterr, reverbnation, tabulature, bollywood chords, ultimate guitar, yousician, guitar lessons, acoustic guitar, electric guitar, guitar tuner, 911 tabs