Guitar Tabs for Ae Kash Ke Hum : Kabhi Ha Kabhi Na

(/) Slide Up  (\) Slide Down  (h) Hammer On  (p) Pull Off  (b) Bend (r) Release (v) Vibrato (x) Muted

Tabs for Song :

E|--------------------------------------------------------------------------------
B|-----------3--1--3--------------1--------------------------1--------------------
G|--2--2---------------------2b------3--------0-----------0-----0--0--0--2--------
D|--------------------------------------------------------------------------------
A|-----------------------------------------------------------------------------
E|-----------------------------------------------------------------------------
    ae kaash ke hum          hosh  me...ab     aane..    na paayen     

E|-----------------------------------------------
B|--------------------1--3------3/5--3--1--------
G|--3--2--0--0-----3-----------------------------
D|-----------------------------------------------
A|-----------------------------------------------
E|-----------------------------------------------
    bas nagme      tere     payaar ke   
    
E|--0---------------------------------
B|-----3--1-----------1-----------------
G|--------------2--3--------3--3--2-----
D|--------------------------------------
A|--------------------------------------
E|--------------------------------------
--  gaate   hi     jaaayeen......     

E|--------------------------------------------------------------------------
B|-----------3--1--3--------------1--------------------1--------------------
G|--2--2---------------------2b------3--0-----------0-----0--0--0--2--------
D|--------------------------------------------------------------------------
A|--------------------------------------------------------------------------
E|--------------------------------------------------------------------------
    ae kaash ke hum          hosh  me...ab     aane..    na paayen     

E|-----------------------------------------------
B|--------------------1--3------3/5--3--1--------
G|--3--2--0--0-----3-----------------------------
D|-----------------------------------------------
A|-----------------------------------------------
E|-----------------------------------------------
    bas nagme      tere     payaar ke   
   
E|--0---------------------------------
B|-----3--1-----------1-----------------
G|--------------2--3--------3--3--2-----
D|--------------------------------------
A|--------------------------------------
E|--------------------------------------
--  gaate   hi     jaaayeen......        


E|--0-----------0-----------0--------------------------
B|-----3-----------3-----------3------------3/5--3--1--
G|-----------2-----------2--------------2--------------
D|-----------------------------------------------------
A|-----------------------------------------------------
E|-----------------------------------------------------
   Khilati, mahakati    Yeh julfon kee  shaam........
E|-----------------------------------------------------
B|--3--1--------3--1--------3--1-----------------------
G|-----------0-----------0--------------0---3/5--3--2--
D|-----------------------------------------------------
A|-----------------------------------------------------
E|-----------------------------------------------------
Hasate, khanakate     Yeh hothhon ke    jaam.........

E|--0-----------0-----------0--------------------------
B|-----3-----------3-----------3------------3/5--3--1--
G|-----------2-----------2--------------2--------------
D|-----------------------------------------------------
A|-----------------------------------------------------
E|-----------------------------------------------------
   Khilati, mahakati    Yeh julfon kee  shaam........
E|-----------------------------------------------------
B|--3--1--------3--1--------3--1-----------------------
G|-----------0-----------0--------------0---3/5--3--2--
D|-----------------------------------------------------
A|-----------------------------------------------------
E|-----------------------------------------------------
Hasate, khanakate     Yeh hothhon ke    jaam.........


E|-------------------------------
B|-----3--1-----------------------
G|--2--------3-----2---2h3--0-----
D|--------------------------------
A|--------------------------------
E|--------------------------------
    Aa zoom ke saath uthhaye


E|--------------------------------------------------
B|-----------------------1-----3---3/5--3--1--------
G|--3--2--0--0-----2--3-----------------------------
D|--------------------------------------------------
A|--------------------------------------------------
E|--------------------------------------------------
    Bas nagmein     tere           pyaar ke

E|--0---------------------------------
B|-----3--1-----------1-----------------
G|--------------2--3--------3--3--2-----
D|--------------------------------------
A|--------------------------------------
E|--------------------------------------
--  gaate   hi     jaaayeen......    
tabs and chords, guitar tabs, music contests, music covers, songsterr, reverbnation, renditions, tabulature, bollywood chords, ultimate guitar, yousician, guitar lessons, torrins, fender, gibson, acoustic guitar, electric guitar, youtube covers, gootar, guitar tuner, A-Z tabs, 911 tabs