Guitar Tabs for Justin Bieber - Love Yourself

(/) Slide Up  (\) Slide Down  (h) Hammer On  (p) Pull Off  (b) Bend (r) Release (v) Vibrato

Justin Bieber Love Yourself Guitar Tabs

For the times that you rain on my parade
E|--------------------------------
B|--------5-----5--5-----5--------
G|--5--7--------------7-----5-----
D|--------------------------------
A|--------------------------------
E|--------------------------------

For all the clubs you get in using my name
E|--------------------------------------
B|-----5--6-----5--------------5--------
G|--7--------------7--5--5--7-----7-----
D|--------------------------------------
A|--------------------------------------
E|--------------------------------------


You think you broke my heart O girl for goodness sake
E|-----------------------------------
B|--------5--8-----5--------5--------
G|--5--7--------------7--7-----5-----
D|-----------------------------------
A|-----------------------------------
E|-----------------------------------

You think I m crying Oh my oh well I aint
E|--------------------------------------
B|-----5--6-----5--------------5--------
G|--7--------------7--5--5--7-----7-----
D|--------------------------------------
A|--------------------------------------
E|--------------------------------------


And I didnt wanna write a song
E|-----------------------------
B|-----------------5--8--------
G|-----------5--7--------9-----
D|--5--5--5--------------------
A|-----------------------------
E|-----------------------------

cause' I didnt want anyone thinking I still care I dont but
E|-----------------------------
B|--5--8--6--5-----------5-----
G|--------------7--5--7--------
D|-----------------------------
A|-----------------------------
E|-----------------------------

you still hit my phone up
E|--------------------------
B|--------5-----------5-----
G|--5--7-----5--7-----------
D|--------------------------
A|--------------------------
E|--------------------------

My mamma dont like you she likes everyone
E|-----------------------------------------
B|-----------5--5--------------------------
G|--5--5--5-----------5--7--7--7--5--5-----
D|-----------------------------------------
A|-----------------------------------------
E|-----------------------------------------


Cause if you like the way you look that much
E|-----------------------------------------
B|-----5--5-----3--3--------5--5--5--3-----
G|--5--------------------5-----------------
D|-----------------------------------------
A|-----------------------------------------
E|-----------------------------------------

O baby you should go and love yourself
E|-----------------------------------
B|--------5-----5--------------------
G|--5--7-----5-----5--7--5-----5-----
D|-----------------------------------
A|-----------------------------------
E|-----------------------------------


Cause if you think that I m still holding on 
E|--------------------------------------------
B|-----5--5-----3--3--------5--5--5--5--3-----
G|--5--------------------5--------------------
D|--------------------------------------------
A|--------------------------------------------
E|--------------------------------------------

to something you should go and love yourself
E|--------------------------------
B|--------5-----5-----------------
G|--5--7-----5-----5--7--5-----5--
D|--------------------------------
A|--------------------------------
E|--------------------------------

tabs and chords, guitar tabs, music contests, music covers, songsterr, reverbnation, renditions, tabulature, bollywood chords, ultimate guitar, yousician, guitar lessons, torrins, fender, gibson, acoustic guitar, electric guitar, youtube covers, gootar, guitar tuner, A-Z tabs, 911 tabs