Guitar Tabs for Love Yourself - Justin Bieber | Fingerstyle

(/) Slide Up  (\) Slide Down  (h) Hammer On  (p) Pull Off  (b) Bend (r) Release (v) Vibrato

Capo on 4th Fret
Song lyrics here
*Work in progress*
E|--0--0--X----------X---------X---1--1--X---0--0--X---------X---
B|--------X---3---3--X---1--1--X---------X---------X---3--3--X---
G|--------X----------X---------X---------X---------X---------X---
D|--------X----------X---------X---0-----X---------X---------X---
A|--3-----X---2------X---0-----X---------X---3-----X---2-----X---
E|--------X----------X---------X---------X---------X---------X---

E|--------0--0--X---------0--------------X------0--1--1--0------
B|---1h3--------X---1--3------3p1--1--1--X---3--------------3---
G|--------------X------------------------X----------------------
D|--------------X------------------------X---------0------------
A|--------3-----X------2-----------0-----X----------------------
E|--------------X------------------------X----------------------

E|-----------------------X---------0--0--X---------0-----------
B|--1--3---3/-5\3-----3--X----1h3--------X---1--3------3p1--1--
G|--------------------0--X---------------X---------------------
D|-----------------------X---------------X---------------------
A|--3--------------2-----X---------3-----X------2-----------0--
E|-----------------------X---------------X---------------------

E|-----X-----0--1--1--0-----------0-----------X---------------
B|--1--X--3--------------3--1--3-----3-----3--X---------------
G|-----X-----------------------------------0--X---------------
D|-----X--------0-----------------------------X---------------
A|-----X--------------------3-----------3-----X---------------
E|-----X--------------------------------------X---------------

E|------------0--3--0--3--3---3p1--1---------------------------
B|-------1h3---------------------------------------------------
G|-0h2---------------------------------------------------------
D|-------------------------------------------------------------
A|------------3------------------------------------------------
E|-------------------------------------------------------------

E|---1p0--0-----------------0--------0--------0--------0--X------
B|------------3p1--1--1--3-----1--3-----1--3-----1--3-----X------
G|--------------------------------------------------------X------
D|--------------------------------0-----------------------X------
A|---0p---------------0-----------------3-----------2-----X------
E|--------------------------------------------------------X------

E|--------------0--3--0--3--3---3p1--1---1p0--0-----------------
B|---------1h3------------------------------------3p1--1--1--3--
G|---0h2--------------------------------------------------------
D|--------------------------------------------------------------
A|--------------3------------------------0p---------------0-----
E|--------------------------------------------------------------

E|--0--------0--------0--------0--X-----------------------------
B|-----1--3-----1--3-----1--3-----X-----------------------------
G|--------------------------------X-----------------------------
D|--------0-----------------------X-----------------------------
A|--------------3-----------2-----X-----------------------------
E|--------------------------------X-----------------------------

E|-----------------------------------------------------X------X-
B|--1--1--1---3/5--5--1------1h3--3---3p1--1--1-----1--X---1--X-
G|--------------------------------------------------0--X---0--X-
D|-----------------------------------------------------X------X-
A|-----------------0-----------------------------3-----X---3--X-
E|-----------------------1-----------------------------X------X-

E|--------------------------------------------0--------X------X-
B|--1--1--1---3/5--5--1------1h3--3---3p1--1--------1--X---1--X-
G|--------------------------------------------------0--X---0--X-
D|-----------------------------------------------------X------X-
A|-----------------0-----------------------------3-----X---3--X-
E|-----------------------1-----------------------------X------X-

E|-----3---1--0-----------0--0--------0--1--0------------1/3--3--
B|--1------------3--1--1--------1--3-----------3--3--1-----------
G|--0------------------------------------------------------------
D|--2------------------------------------------------------------
A|--3------------0--------------------3-----------------------0--
E|---------------------------1--------------------3--------------

E|-----3--
B|-----1--
G|--------
D|--------
A|--------
E|--1-----

E|--
B|--
G|--
D|--
A|--
E|--





Song lyrics here
E|--
B|--
G|--
D|--
A|--
E|--

Add more lines by placing cursor below and adding notes
tabs and chords, guitar tabs, music contests, music covers, songsterr, reverbnation, renditions, tabulature, bollywood chords, ultimate guitar, yousician, guitar lessons, torrins, fender, gibson, acoustic guitar, electric guitar, youtube covers, gootar, guitar tuner, A-Z tabs, 911 tabs