Guitar Tabs for Love Yourself - Justin Bieber Chords

(/) Slide Up  (\) Slide Down  (h) Hammer On  (p) Pull Off  (b) Bend (r) Release (v) Vibrato (x) Muted

Tabs for Song : Love Yourself chords

for that times........repeat multiple times...
E|-----------x--------------x--------------x--------------x--------------x--------------x-----
B|--9-----9--x-----7-----7--x-----5-----5--x-----10----10-x-----9-----9--x-----7-----7--x-----
G|-----------x--------------x--------------x--------------x--------------x--------------x-----
D|-----------x--------------x--------------x--------------x--------------x--------------x-----
A|--7-----7--x-----6-----6--x-----4-----4--x-----9-----9--x-----7-----7--x-----6-----6--x-----
E|-----------x--------------x--------------x--------------x--------------x--------------x-----


my maama don't............admit that iwas wrong(play 2 times)
E|--------x--------x--------x--------x-----
B|--------x--------x--------x--------x-----
G|--6--6--x--2-----x--1--1--x--1-----x-----
D|--6--6--x--2-----x--2--2--x--2-----x-----
A|--4--4--x--0-----x--2--2--x--2-----x-----
E|--------x--------x--0--0--x--0-----x-----

and i've been....whats going on
E|--------x--------x--------x-----x-----
B|--------x--------x--------x-----x-----
G|--6--6--x--2-----x--1--1--x--4--x-----
D|--6--6--x--2-----x--2--2--x--4--x-----
A|--4--4--x--0-----x--2--2--x--2--x-----
E|--------x--------x--0--0--x-----x-----

and now i know i better sleeping on my own
E|--------x-----x-----------------x-----
B|--------x-----x-----------------x-----
G|--6--6--x--2--x--4--4--4--4--4--x-----
D|--6--6--x--2--x--4--4--4--4--4--x-----
A|--4--4--x--0--x--2--2--2--2--2--x-----
E|--------x-----x-----------------x-----



Paste any tab in acousterr's tab maker and we'll play it !!!
Now supports capo and sound effects for vibrato/pull-off/hammer/bends/mutes etc !!! Checkout help section
tabs and chords, guitar tabs, music contests, music covers, songsterr, reverbnation, renditions, tabulature, bollywood chords, ultimate guitar, yousician, guitar lessons, torrins, fender, gibson, acoustic guitar, electric guitar, youtube covers, gootar, guitar tuner, A-Z tabs, 911 tabs