Guitar Tabs for Justin Bieber - Love Yourself

Justin Bieber - Love Yourself

1st Verse

              E                D#m       C#m
  For all the times  that you rain on my parade
E|-----------------------------------------------------
B|------------7h9--9-x---------7--7-x------5--5-x------
G|-------------------x--------------x-----------x------
D|-------------------x--------------x-----------x------ 
A|------------7------x---------6----x------4----x--x---
E|------------0----------------------------------------

             F#m               E       D#m
And all the clubs you get in  using my name
E|-----------------------------------------------
B|-----------10----10-x--------9--9-x---7--7-x---
G|--------------------x-------------x--------x---
D|--------------------x-------------x--------x---
A|-----------9--------x--------7----x---6----x---
E|-----------------------------------------------

              E                D#m             C#m
You think you broke my heart oh girl for goodness sake
E|-----------------------------------------------------------
B|------------7h9--9-x---------7--7-x------------5--5-x------
G|-------------------x--------------x-----------------x------
D|-------------------x--------------x-----------------x------ 
A|------------7------x---------6----x------------4----x--x---
E|------------0----------------------------------------------

               F#m             E           D#m
 You think I'm crying on my    own, well I ain't
E|--------------------------------------------------
B|--------------10----10-x-----9--9-x------7--7-x---
G|-----------------------x----------x-----------x---
D|-----------------------x----------x-----------x---
A|--------------9--------x-----7----x------6----x---
E|--------------------------------------------------

                    E             D#m                      C#m
 And I didn't wanna write a song        cause I didn't want anyone thinking I still care
E|--------------------------------------------------------------------------------------------
B|--------------------7----h9--9-x------7--7-x---------5--5-x---------------------------------
G|-------------------------------x-----------x--------------x---------------------------------
D|-------------------------------x-----------x--------------x--------------------------------- 
A|--------------------7----------x------6----x---------4----x--x------------------------------
E|--------------------0-----------------------------------------------------------------------

   F#m         E                D#m
 I don't but,  you still hit my phone up
E|-----------------------------------------------------
B|--10----10-x--9--9-x------------7--7-x---------------
G|-----------x-------x-----------------x---------------
D|-----------x-------x-----------------x---------------
A|--9--------x--7----x------------6----x---------------
E|-----------------------------------------------------

              E        D#m                    C#m 
And baby I be movin'on      and I think you should be somethin'
E|-----------------------------------------------------------------------
B|------------7h9--9-x---7--7-x------------------5--5-x------------------
G|-------------------x--------x-----------------------x------------------
D|-------------------x--------x-----------------------x------------------ 
A|------------7------x---6----x------------------4----x--x---------------
E|------------0----------------------------------------------------------

                F#m            E                D#m
  I don't wanna hold back,     maybe you should know that
E|--------------------------------------------------------------------
B|--------------10----10-x-----9--9-x------------7--7-x---------------
G|-----------------------x----------x-----------------x---------------
D|-----------------------x----------x-----------------x---------------
A|--------------9--------x-----7----x------------6----x---------------
E|--------------------------------------------------------------------

Pre-Chorus

                C#5          A           E5
  My mama don't like you and she likes everyone
E|--------------------------------------------------------------------
B|--------------------------------------------------------------------
G|--------------6--6-x---------2--x-----------------------------------
D|--------------6--6-x---------2--x--------2--2--x--2--x--------------
A|--------------4----x---------0--x--------2--2--x--2--x--------------
E|-----------------------------------------0-----x--0--x--------------

            C#5       A              E5
And I never like to admit that I was wrong
E|--------------------------------------------------------------
B|--------------------------------------------------------------
G|-----------6--6-x---2--x--------------------------------------
D|-----------6--6-x---2--x-----------2--2--x--2--x--------------
A|-----------4----x---0--x-----------2--2--x--2--x--------------
E|-----------------------------------0-----x--0--x--------------

                   C#5         A             E5             B5
And I've been so caught up in  my job didn't see what's going on
E|--------------------------------------------------------------------
B|--------------------------------------------------------------------
G|-----------------6--6-x------2--2-x------------------------4--4-x---
D|-----------------6--6-x------2--2-x---------2--2-x---------4--4-x---
A|-----------------4----x------0----x---------2--2-x---------2----x---
E|--------------------------------------------0----x------------------


             C#5      A              B5
   And now I know        I'm better sleeping on my own
E|--------------------------------------------------------------
B|--------------------------2-----------------------------------
G|-----------6--6-x---2--2--2--2-----4--4--4--4--4--------------
D|-----------6--6-x---2--2--2--2-----4--4--4--4--4--------------
A|-----------4----x---0-----0--------2--2--2--2--2--------------
E|--------------------------------------------------------------

Chorus

             E    B5          C#m       A
Cause if you like the way you look that much oh baby 
E|-----------------------------------------------------------------
B|-----------------------------5--------2-----2--------------------
G|-----------1-----4-x---------6-x------2-----2--------------------
D|-----------2-x---4-x---------6-x------2-----2--------------------
A|-----------2-x---2-x-x-------4-x------0-----x--------------------
E|-----------0-x---------------------------------0-----------------

    E                    B4(9)   E
   you should go and love yourself
E|-----------------------------------------------------------
B|-----------------------2--2--------------------------------
G|--1--------------------4--4-----1-x------------------------
D|--2-x------------------2--2-----2-x---x--------------------
A|--2-x------------------2--x-x---2-x---x--------------------
E|--0-x---------------------------0-x---x--------------------

   E    B5     C#m   A
And if you think that I'm still holdin' on to something
E|-----------------------------------------------------------------
B|-----------------------------5--------2-----2--------------------
G|-----------1-----4-x---------6-x------2-----2--------------------
D|-----------2-x---4-x---------6-x------2-----2--------------------
A|-----------2-x---2-x-x-------4-x------0-----x--------------------
E|-----------0-x---------------------------------0-----------------

    E                    B4(9)   E
   you should go and love yourself
E|-----------------------------------------------------------
B|-----------------------2--2--------------------------------
G|--1--------------------4--4-----1-x------------------------
D|--2-x------------------2--2-----2-x---x--------------------
A|--2-x------------------2--x-x---2-x---x--------------------
E|--0-x---------------------------0-x---x--------------------

2nd Verse

              E                D#m       C#m
But when you told me that you hated my friends
E|-----------------------------------------------------
B|------------7h9--9-x---------7--7-x------5--5-x------
G|-------------------x--------------x-----------x------
D|-------------------x--------------x-----------x------ 
A|------------7------x---------6----x------4----x--x---
E|------------0----------------------------------------

             F#m               E         D#m
   The only problem was with you and not them
E|--------------------------------------------------
B|-----------10----10-x--------9--9-x------7--7-x---
G|--------------------x-------------x-----------x---
D|--------------------x-------------x-----------x---
A|-----------9--------x--------7----x------6----x---
E|--------------------------------------------------

              E                D#m              C#m
   And every time you told me  my opinion  was  wrong
E|-----------------------------------------------------------
B|------------7h9--9-x---------7--7-x------------5--5-x------
G|-------------------x--------------x-----------------x------
D|-------------------x--------------x-----------------x------ 
A|------------7------x---------6----x------------4----x--x---
E|------------0----------------------------------------------

               F#m             E           D#m
 And tried to make me forget  where I came from
E|--------------------------------------------------
B|--------------10----10-x-----9--9-x------7--7-x---
G|-----------------------x----------x-----------x---
D|-----------------------x----------x-----------x---
A|--------------9--------x-----7----x------6----x---
E|--------------------------------------------------

                    E             D#m                      C#m
 And I didn't wanna write a song        cause I didn't want anyone thinking I still care
E|--------------------------------------------------------------------------------------------
B|--------------------7----h9--9-x------7--7-x---------5--5-x---------------------------------
G|-------------------------------x-----------x--------------x---------------------------------
D|-------------------------------x-----------x--------------x--------------------------------- 
A|--------------------7----------x------6----x---------4----x--x------------------------------
E|--------------------0-----------------------------------------------------------------------

   F#m        E                D#m
 I don't but, you still hit my phone up
E|-----------------------------------------------------
B|--10----10-x--9--9-x------------7--7-x---------------
G|-----------x-------x-----------------x---------------
D|-----------x-------x-----------------x---------------
A|--9--------x--7----x------------6----x---------------
E|-----------------------------------------------------

              E        D#m                    C#m 
And baby I be movin'on      and I think you should be somethin'
E|-----------------------------------------------------------------------
B|------------7h9--9-x---7--7-x------------------5--5-x------------------
G|-------------------x--------x-----------------------x------------------
D|-------------------x--------x-----------------------x------------------ 
A|------------7------x---6----x------------------4----x--x---------------
E|------------0----------------------------------------------------------

                F#m         E                 D#m
  I don't wanna hold back,  maybe you should know that
E|--------------------------------------------------------------------
B|--------------10----10-x-----9--9-x------------7--7-x---------------
G|-----------------------x----------x-----------------x---------------
D|-----------------------x----------x-----------------x---------------
A|--------------9--------x-----7----x------------6----x---------------
E|--------------------------------------------------------------------

Pre-Chorus

                C#5          A           E5
  My mama don't like you and she likes everyone
E|--------------------------------------------------------------------
B|--------------------------------------------------------------------
G|--------------6--6-x---------2--x-----------------------------------
D|--------------6--6-x---------2--x--------2--2--x--2--x--------------
A|--------------4----x---------0--x--------2--2--x--2--x--------------
E|-----------------------------------------0-----x--0--x--------------

            C#5       A              E5
And I never like to admit that I was wrong
E|--------------------------------------------------------------
B|--------------------------------------------------------------
G|-----------6--6-x---2--x--------------------------------------
D|-----------6--6-x---2--x-----------2--2--x--2--x--------------
A|-----------4----x---0--x-----------2--2--x--2--x--------------
E|-----------------------------------0-----x--0--x--------------

                   C#5         A             E5             B5
And I've been so caught up in  my job didn't see what's going on
E|--------------------------------------------------------------------
B|--------------------------------------------------------------------
G|-----------------6--6-x------2--2-x------------------------4--4-x---
D|-----------------6--6-x------2--2-x---------2--2-x---------4--4-x---
A|-----------------4----x------0----x---------2--2-x---------2----x---
E|--------------------------------------------0----x------------------


             C#5      A              B5
   And now I know        I'm better sleeping on my own
E|--------------------------------------------------------------
B|--------------------------2-----------------------------------
G|-----------6--6-x---2--2--2--2-----4--4--4--4--4--------------
D|-----------6--6-x---2--2--2--2-----4--4--4--4--4--------------
A|-----------4----x---0-----0--------2--2--2--2--2--------------
E|--------------------------------------------------------------

Chorus

             E    B5          C#m       A
Cause if you like the way you look that much oh baby 
E|-----------------------------------------------------------------
B|-----------------------------5--------2-----2--------------------
G|-----------1-----4-x---------6-x------2-----2--------------------
D|-----------2-x---4-x---------6-x------2-----2--------------------
A|-----------2-x---2-x-x-------4-x------0-----x--------------------
E|-----------0-x---------------------------------0-----------------

    E                    B4(9)   E
   you should go and love yourself
E|-----------------------------------------------------------
B|-----------------------2--2--------------------------------
G|--1--------------------4--4-----1-x------------------------
D|--2-x------------------2--2-----2-x---x--------------------
A|--2-x------------------2--x-x---2-x---x--------------------
E|--0-x---------------------------0-x---x--------------------

   E    B5     C#m   A
And if you think that I'm still holdin' on to something
E|-----------------------------------------------------------------
B|-----------------------------5--------2-----2--------------------
G|-----------1-----4-x---------6-x------2-----2--------------------
D|-----------2-x---4-x---------6-x------2-----2--------------------
A|-----------2-x---2-x-x-------4-x------0-----x--------------------
E|-----------0-x---------------------------------0-----------------

    E                    B4(9)   E
   you should go and love yourself
E|-----------------------------------------------------------
B|-----------------------2--2--------------------------------
G|--1--------------------4--4-----1-x------------------------
D|--2-x------------------2--2-----2-x---x--------------------
A|--2-x------------------2--x-x---2-x---x--------------------
E|--0-x---------------------------0-x---x--------------------

Trumpet Solo

       E    B5    C#m    A
E|----------------------------------------------
B|-----------------5-----2--2--------------------
G|-----1-----4-x---6-x---2--2--------------------
D|-----2-x---4-x---6-x---2--2--------------------
A|-----2-x---2-x-x-4-x---0--x--------------------
E|-----0-x---------------------0-----------------

    E    B4(9)   E
E|--------------------------------------------
B|--------2--2--------------------------------
G|--1-----4--4-----1-x------------------------
D|--2-x---2--2-----2-x---x--------------------
A|--2-x---2--x-x---2-x---x--------------------
E|--0-x------------0-x---x--------------------

   E      B5   C#m   A
E|--------------------------------------------
B|--------------5-----2--2--------------------
G|--1-----4-x---6-x---2--2--------------------
D|--2-x---4-x---6-x---2--2--------------------
A|--2-x---2-x-x-4-x---0--x--------------------
E|--0-x---------------------0-----------------

    E    B4(9)   E
E|--------------------------------------------
B|--------2--2--------------------------------
G|--1-----4--4-----1-x------------------------
D|--2-x---2--2-----2-x---x--------------------
A|--2-x---2--x-x---2-x---x--------------------
E|--0-x------------0-x---x--------------------

3rd Verse

              E            D#m         C#m
For all the times that you made me feel small
E|--------------------------------------------------
B|------------7h9--9-x------7--7-x------5--5-x------
G|-------------------x-----------x-----------x------
D|-------------------x-----------x-----------x------ 
A|------------7------x------6----x------4----x--x---
E|------------0-------------------------------------

             F#m               E       D#m
   I fell in love now I fear nothin' at all
E|-----------------------------------------------
B|-----------10----10-x--------9--9-x---7--7-x---
G|--------------------x-------------x--------x---
D|--------------------x-------------x--------x---
A|-----------9--------x--------7----x---6----x---
E|-----------------------------------------------

              E                D#m             C#m
     I never felt so low when  I     was vulnerable
E|-----------------------------------------------------------
B|------------7h9--9-x---------7--7-x------------5--5-x------
G|-------------------x--------------x-----------------x------
D|-------------------x--------------x-----------------x------ 
A|------------7------x---------6----x------------4----x--x---
E|------------0----------------------------------------------

               F#m             E           D#m
      Was I a fool to let you break down my walls
E|--------------------------------------------------
B|--------------10----10-x-----9--9-x------7--7-x---
G|-----------------------x----------x-----------x---
D|-----------------------x----------x-----------x---
A|--------------9--------x-----7----x------6----x---
E|--------------------------------------------------

3rd Chorus

             E    B5          C#m       A
Cause if you like the way you look that much oh baby 
E|-----------------------------------------------------
B|-----------------------------5--------2-----2--------
G|-----------1-----4-x---------6-x------2-----2--------
D|-----------2-x---4-x---------6-x------2-----2--------
A|-----------2-x---2-x-x-------4-x------0-----x--------
E|-----------0-x---------------------------------0-----

    E                    B4(9)   E
   you should go and love yourself
E|-----------------------------------------
B|-----------------------2--2--------------
G|--1--------------------4--4-----1-x------
D|--2-x------------------2--2-----2-x---x--
A|--2-x------------------2--x-x---2-x---x--
E|--0-x---------------------------0-x---x--

   E    B5     C#m   A
And if you think that I'm still holdin' on to something
E|-----------------------------------------------------
B|-----------------------------5--------2-----2--------
G|-----------1-----4-x---------6-x------2-----2--------
D|-----------2-x---4-x---------6-x------2-----2--------
A|-----------2-x---2-x-x-------4-x------0-----x--------
E|-----------0-x---------------------------------0-----

    E                    B4(9)   E
   you should go and love yourself
E|-----------------------------------------
B|-----------------------2--2--------------
G|--1--------------------4--4-----1-x------
D|--2-x------------------2--2-----2-x---x--
A|--2-x------------------2--x-x---2-x---x--
E|--0-x---------------------------0-x---x--


             E    B5          C#m       A
Cause if you like the way you look that much oh baby 
E|--------------------------------------------------
B|-----------------------------5--------2-----2-----
G|-----------1-----4-x---------6-x------2-----2-----
D|-----------2-x---4-x---------6-x------2-----2-----
A|-----------2-x---2-x-x-------4-x------0-----x-----
E|-----------0-x---------------------------------0--

    E                    B4(9)   E
   you should go and love yourself
E|-----------------------------------------
B|-----------------------2--2--------------
G|--1--------------------4--4-----1-x------
D|--2-x------------------2--2-----2-x---x--
A|--2-x------------------2--x-x---2-x---x--
E|--0-x---------------------------0-x---x--

   E    B5     C#m   A
And if you think that I'm still holdin' on to something
E|-----------------------------------------------------
B|-----------------------------5--------2-----2--------
G|-----------1-----4-x---------6-x------2-----2--------
D|-----------2-x---4-x---------6-x------2-----2--------
A|-----------2-x---2-x-x-------4-x------0-----x--------
E|-----------0-x---------------------------------0-----

    E                    B4(9)   E
   you should go and love yourself
E|-----------------------------------------
B|-----------------------2--2--------------
G|--1--------------------4--4-----1-x------
D|--2-x------------------2--2-----2-x---x--
A|--2-x------------------2--x-x---2-x---x--
E|--0-x---------------------------0-x---x--
tabs and chords, guitar tabs, music transcription, music technology, deep learning, music information retrieval, transcribe into tabs & chords, chordify, music renditions, songsterr, reverbnation, tabulature, bollywood chords, ultimate guitar, yousician, guitar lessons, acoustic guitar, electric guitar, guitar tuner, 911 tabs