Bass Tabs for Jolka Zwrotka

(/) Slide Up  (\) Slide Down  (h) Hammer On  (p) Pull Off  (b) Bend (r) Release (v) Vibrato (x) Muted

Tabs for Song : 
BPM : 30

Za pierwszym i trzecim razem s? po trzy zwrotki, jak tu, a za drugim tylko dwie: 
F|--------------------------------------------
C|--------------------------------------------
G|--5--0--2--5--0--2--5--0-----2--5--0--------
C|--------------------------2-----------5-----

F|--------------------------------------------
C|--------------------------------------------
G|--5--0--2--5--0--2--5--0-----2--5--0--------
C|--------------------------2-----------5-----

F|--------------------------------------------
C|--------------------------------------------
G|--5--0--2--5--0--2--5--0-----2--5--0--------
C|--------------------------2-----------5-----

Przed refrenem s? jeszcze cztery takty h:
F|--------
C|--------
G|--2-----
C|--------




Use manual mode to free up cursor. Paste any tab in acousterr tab maker and we'll play it !!!
tabs and chords, guitar tabs, music transcription, music technology, deep learning, music information retrieval, transcribe into tabs & chords, chordify, music renditions, songsterr, reverbnation, tabulature, bollywood chords, ultimate guitar, yousician, guitar lessons, acoustic guitar, electric guitar, guitar tuner, 911 tabs