Guitar Tabs for Jojo Siwa- Worldwide Party (part4)

(/) Slide Up  (\) Slide Down  (h) Hammer On  (p) Pull Off  (b) Bend (r) Release (v) Vibrato (x) Muted

Tabs & Chords
BPM : 170.0
Check Track 2 for Chord Positions 

       A#             Cm          A#                D#                G#                Cm    A# 
E|-----0-----------------------------------------------------------------------------------------
B|--------------------------6-----------4-----4-----4-----4-----4-----0-----4-----------4-----6--
G|--------------------5--------------3-----------------------------------------------------------
D|-----------------------------------------------------------------------------------------------
A|-----------------------------------------------------------------6-----------------------------
E|--------------6-----------------6--------------------------------------------------------------

                                        Cm             A#          G#             D#    Cm       
E|--3-----------------------------------------3-----------------------------------------------3--
B|-----6-----6-----4-----4--------------3-----------0--4-----6-----4--------------------4--------
G|-----------------------------6--6--------------------------------------------------------------
D|-----------------------------------------------------------------------------------------------
A|-----------------------------------------------------------------------------------------------
E|--------------------------------------------------------------------4-----------3--3-----------

       A#                   D#                            G#    D#       
E|-----------0--------3-----9-----------------0-----------------4--------
B|-----4--------4--6-----------6-----6--4-----------------4--------------
G|--------------------------------------------------------------------3--
D|-----------------------------------------------------------------------
A|-----------------------------------------------------------------------
E|-----------------------------------------------------------------------

Guitar Tabs for Jojo Siwa- Worldwide Party (part4)






       A#             Cm          A#                D#                G#                Cm    A# 
E|-----1--------------3-----------1-----------------6-----------------4-----------------3-----1--
B|-----3--------------4-----------3-----------------8-----------------4-----------------4-----3--
G|-----3--------------5-----------3-----------------8-----------------5-----------------5-----3--
D|-----3--------------5-----------3-----------------8-----------------6-----------------5-----3--
A|-----1--------------3-----------1-----------------6-----------------6-----------------3-----1--
E|--------------------------------------------------------------------4--------------------------

                                        Cm             A#          G#             D#    Cm       
E|--------------------------------------3--------------1-----------4--------------6-----3--------
B|--------------------------------------4--------------3-----------4--------------8-----4--------
G|--------------------------------------5--------------3-----------5--------------8-----5--------
D|--------------------------------------5--------------3-----------6--------------8-----5--------
A|--------------------------------------3--------------1-----------6--------------6-----3--------
E|-----------------------------------------------------------------4-----------------------------

       A#                   D#                            G#    D#       
E|-----1--------------------6-----------------------------4-----6--------
B|-----3--------------------8-----------------------------4-----8--------
G|-----3--------------------8-----------------------------5-----8--------
D|-----3--------------------8-----------------------------6-----8--------
A|-----1--------------------6-----------------------------6-----6--------
E|--------------------------------------------------------4--------------

tabs and chords, guitar tabs, music transcription, music technology, deep learning, music information retrieval, transcribe into tabs & chords, chordify, music renditions, songsterr, reverbnation, tabulature, bollywood chords, ultimate guitar, yousician, guitar lessons, acoustic guitar, electric guitar, guitar tuner, 911 tabs