Guitar Tabs for Jojo Siwa- Hod The Drama (part 1)

(/) Slide Up  (\) Slide Down  (h) Hammer On  (p) Pull Off  (b) Bend (r) Release (v) Vibrato (x) Muted

Tabs & Chords
BPM : 125.0
Check Track 2 for Chord Positions 

          B                                                        E                             
E|-----------------------------------------0--------------------------------------13----------11-
B|--------------12-------------------13----------11----------------------0--------------13-------
G|--------12----------12----------------------------11----------------------14-14----------------
D|--------------------------12-11-------------15-------15----11----11----------------------------
A|-----------------------------------------------------------------------------------------------
E|-----------------------------------------------------------------------------------------------

                                                 G                       D           Bm       
E|-----------------------------0--------------------------------------------------------------
B|--------------------------------------------------------------------------------------------
G|--14-------------------------------------------11----12----------------------------11-11-11-
D|--------13----11-13-13-12----------13----13-------------12-12----12----12----12-------------
A|--------------------------------------------------------------------------------------------
E|--------------------------------------------------------------------------------------------

                               A                 G           
E|--------------------------------------------------------0--
B|--------------0--------------0-----------------------------
G|-----------------------------------------------------------
D|-----12----12----13-12-------------12----------12-12-------
A|-----------------------12----------------12----------------
E|-----------------------------------------------------------

Guitar Tabs for Jojo Siwa- Hod The Drama (part 1)






          B                                                        E                             
E|--------2--------------------------------------------------------0-----------------------------
B|--------4--------------------------------------------------------0-----------------------------
G|--------4--------------------------------------------------------1-----------------------------
D|--------4--------------------------------------------------------2-----------------------------
A|--------2--------------------------------------------------------2-----------------------------
E|-----------------------------------------------------------------0-----------------------------

                                                 G                       D           Bm       
E|-----------------------------------------------3-----------------------2-----------2--------
B|-----------------------------------------------3-----------------------3-----------3--------
G|-----------------------------------------------4-----------------------2-----------4--------
D|-----------------------------------------------5-----------------------0-----------4--------
A|-----------------------------------------------5-----------------------------------2--------
E|-----------------------------------------------3--------------------------------------------

                               A                 G           
E|-----------------------------0-----------------3-----------
B|-----------------------------2-----------------3-----------
G|-----------------------------2-----------------4-----------
D|-----------------------------2-----------------5-----------
A|-----------------------------0-----------------5-----------
E|-----------------------------------------------3-----------

tabs and chords, guitar tabs, music transcription, music technology, deep learning, music information retrieval, transcribe into tabs & chords, chordify, music renditions, songsterr, reverbnation, tabulature, bollywood chords, ultimate guitar, yousician, guitar lessons, acoustic guitar, electric guitar, guitar tuner, 911 tabs