In The Pines - Guitar Tabs

(/) Slide Up  (\) Slide Down  (h) Hammer On  (p) Pull Off  (b) Bend (r) Release (v) Vibrato (x) Muted

Progression in 3/4 time: E E A G B7 B7 E

Tabs for Song : 
BPM : 200
Chords:   E  A  G  B7     Transitions: E -> A              B7 Flourish    B walk up
Song lyrics here 
E|--------0--0--3--2-----------------------------------------2-----2-----------------2--
B|--------0--2--0--0-----------------------------------------0-----0-----------------0--
G|--------1--2--0--2-----------------------------------------2-----2-----------------2--
D|--------2--2--0--1-----------------------------------------1-----1-----------------1--
A|--------2--0--2--2-----------------0--------------0--------2--------------0--1--2--2--
E|--------0-----3-----------0--2--4---------0h-2\4-----------------2--------------------

    B7 to G          Ending E flourish
E|--2-----------0--------0--------0--0--
B|--0-----------0--------0-----------0--
G|--2-----------1--------1-----------1--
D|--1-----------2--------2-----------2--
A|--------------2--------2---0h2-----2--
E|--2---2\4--0--0--------0-----------0--

E|-----0--0--0--0-----0--0--------------0--0--0--0-----3--3-----------2--2--2--2-----2--2-----------
B|-----0--0--0--0-----0--0--------------2--2--2--2-----0--0-----------0--0--0--0-----0--0-----------
G|-----1--1--1--1-----1--1--------------2--2--2--2-----0--0-----------2--2--2--2-----2--2-----------
D|-----2--2--2--2-----2--2--------------2--2--2--2-----0--0-----------1--1--1--1-----1--1-----------
A|-----2--2--2--2-----2--2-----------0--0--0--0--0-----2--2--0--1--2--2--2--2--2--------------------
E|--0--0--0--0--0--0--0--0---0h-2\4-----------------3--3--3-----------------------2--2--2---2\4--0--

E|--0--0--------0--0--
B|--0--0-----------0--
G|--1--1-----------1--
D|--2--2-----------2--
A|--2--2---0h2-----2--
E|--0--0-----------0--

Use manual mode to free up cursor. Paste any tab in acousterr tab maker and we'll play it !!!

About The Place Beyond the Pines : The Place Beyond the Pines is directed by Derek Cianfrance, Ben Coccio, and Darius M The film reunites Cianfrance and Gosling, who had previously worked together in 2010's Blue Valentine . Coccio and Marder, who shared similar interests in film and media, helped write the story . The film premiered at the 2012 Toronto International Film Festival . Focus Features purchased the distribution rights after being impressed by the film screening . It received a generally positive response from critics and moderate success at the box office .

tabs and chords, guitar tabs, music transcription, music technology, deep learning, music information retrieval, transcribe into tabs & chords, chordify, music renditions, songsterr, reverbnation, tabulature, bollywood chords, ultimate guitar, yousician, guitar lessons, acoustic guitar, electric guitar, guitar tuner, 911 tabs