Bass Tabs for In A Room Verse Bass

(/) Slide Up  (\) Slide Down  (h) Hammer On  (p) Pull Off  (b) Bend (r) Release (v) Vibrato (x) Muted

Tabs for Song : 

Song lyrics here
F|-----------------------------------------------------------
C|-----------------------------------------------1--------1--
G|--4-----4--2--4--0--0--0--2--4-----------1--3-----3--3-----
D|--------------------------------4--4--4--------------------

F|-----------------------------------------------------------
C|-----------------------------------------------1--------1--
G|--4-----4--2--4--0--0--0--2--4-----------1--3-----3--3-----
D|--------------------------------4--4--4--------------------

F|-----------------------------------------------------------
C|-----------------------------------------------1--1--1--1--
G|--4-----4--2--4--0--0--0--2--4-----------1--3--------------
D|--------------------------------4--4--4--------------------
tabs and chords, guitar tabs, music transcription, music technology, deep learning, music information retrieval, transcribe into tabs & chords, chordify, music renditions, songsterr, reverbnation, tabulature, bollywood chords, ultimate guitar, yousician, guitar lessons, acoustic guitar, electric guitar, guitar tuner, 911 tabs