Bass Tabs for Dark Room

(/) Slide Up  (\) Slide Down  (h) Hammer On  (p) Pull Off  (b) Bend (r) Release (v) Vibrato (x) Muted

Tabs for Dark Room: 
Tuning: Eb Standard (E Standard halfstep down)

Main Riff
F|--------------------------------------------------------------------------
C|--------------------------------------------------------------------------
G|--------------------------------------------------------------------------
D|--0-----0--1--2--1--0-----0-----0--1--2--1--0-----0-----0--1--2--1--0-----

Chorus
F|--------------------------------------------------------------------------------------------------
C|--------------------------------------------------------------------------------------------------
G|--3-----3--5-----5--5-----------------------------3-----3-----------------------------------------
D|--------------------------0-----0--1--2--1--0--------------3-----3--3-----0-----0--1--2--1--0-----

F|---------------------------------------------------------------------------------------------------
C|--------5-----------7-----------------------------------------------------------------------------
G|--3---------3/5--------5--------------------------------------2-----2-----------------------------
D|-----------------------------0-----0--1--2--1--0-----3-----3------------3b4--0-----0--1--2--1--0--
tabs and chords, guitar tabs, music transcription, music technology, deep learning, music information retrieval, transcribe into tabs & chords, chordify, music renditions, songsterr, reverbnation, tabulature, bollywood chords, ultimate guitar, yousician, guitar lessons, acoustic guitar, electric guitar, guitar tuner, 911 tabs