Guitar Tabs for Piano Verse

(/) Slide Up  (\) Slide Down  (h) Hammer On  (p) Pull Off  (b) Bend (r) Release (v) Vibrato (x) Muted

Tabs & Chords
BPM : 89.0
Check Track 2 for Chord Positions 

          Dm    F           C                 Em          Dm          F     C                 Em 
E|--1-----1-----------------------------------------------1--------------------------------------
B|--------------1-----1-----1-----1--1--0-----0-----3-----------1-----1-----1-----1-----0-----0--
G|-----------------------------------------------------------------------------------------------
D|-----------------------------------------------------------------------------------------------
A|-----------------------------------------------------------------------------------------------
E|-----------------------------------------------------------------------------------------------

             Dm A#       F                       C  
E|-----1-----------------------------------0--0-----
B|-----------3--3--1-----1-----1--1--1--1--------1--
G|--------------------------------------------------
D|--------------------------------------------------
A|--------------------------------------------------
E|--------------------------------------------------

Guitar Tabs for Piano Verse






          Dm    F           C                 Em          Dm          F     C                 Em 
E|--------1-----1-----------0-----------------0-----------1-----------1-----0-----------------0--
B|--------3-----1-----------1-----------------0-----------3-----------1-----1-----------------0--
G|--------2-----2-----------0-----------------0-----------2-----------2-----0-----------------0--
D|--------0-----3-----------2-----------------2-----------0-----------3-----2-----------------2--
A|--------------3-----------3-----------------2-----------------------3-----3-----------------2--
E|--------------1-----------------------------0-----------------------1-----------------------0--

             Dm A#       F                       C  
E|-----------1--1--------1-----------------------0--
B|-----------3--3--------1-----------------------1--
G|-----------2--3--------2-----------------------0--
D|-----------0--3--------3-----------------------2--
A|--------------1--------3-----------------------3--
E|-----------------------1--------------------------

tabs and chords, guitar tabs, music transcription, music technology, deep learning, music information retrieval, transcribe into tabs & chords, chordify, music renditions, songsterr, reverbnation, tabulature, bollywood chords, ultimate guitar, yousician, guitar lessons, acoustic guitar, electric guitar, guitar tuner, 911 tabs