Guitar Tabs for Throne Room

(/) Slide Up  (\) Slide Down  (h) Hammer On  (p) Pull Off  (b) Bend (r) Release (v) Vibrato (x) Muted

Tabs & Chords
BPM : 117.0
Check Track 2 for Chord Positions 

                                                          C                             G#    
C|--------------------------------------------------------------------------------------------
G|--------------------------------------------------------------------------------------------
D|--5--5--5--5-----5-----5--5-----5--5--5-----5-----5--5--------5--5--5-----5-----5-----------
A|--------------------------------------------------------3-----------------------------6--6--
F|--------------------------------------------------------------------------------------------
C|--------------------------------------------------------------------------------------------

       C                                                  D#                   G              
C|--------------------3-----3--3-----0-----------------------3--------------------------------
G|--------------------------------------------------0-----------------------------------------
D|--5--5--------0-----------------5-----------5--5--------3-----3--3-----3--3--0--------------
A|--------6-----------------------------6--6--------------------------------------------------
F|--------------------------------------------------------------------------------3--3-----3--
C|--------------------------------------------------------------------------------------------

             C                       Fm                                     C  Fm             
C|--------3-----------------------------------3-----6--4--4--4--4--4-----------------3-----4--
G|-----------6-----------------------6-----6-----------------------------------6--------------
D|-----------------0-----5--5--5--------------------------------------5-----5-----------------
A|--------------------------------------------------------------------------------------------
F|--------------------------------------------------------------------------------------------
C|--7--3--------------------------------------------------------------------------------------

                   A#       C  Fm                      C#       
C|-----6--6--6--------6--------------------3--4-----------------
G|--6-----------------------6--6--6--6-----------6-----6--------
D|-----------------3-----------------------------------------0--
A|--------------------------------------------------------3-----
F|--------------------------------------------------------------
C|--------------------------------------------------------------

























Guitar Tabs for Throne Room






                                                          C                             G#    
E|--------------------------------------------------------0-----------------------------4-----
B|--------------------------------------------------------1-----------------------------4-----
G|--------------------------------------------------------0-----------------------------5-----
D|--------------------------------------------------------2-----------------------------6-----
A|--------------------------------------------------------3-----------------------------6-----
E|--------------------------------------------------------------------------------------4-----

       C                                                  D#                   G              
E|-----0--------------------------------------------------6--------------------3--------------
B|-----1--------------------------------------------------8--------------------3--------------
G|-----0--------------------------------------------------8--------------------4--------------
D|-----2--------------------------------------------------8--------------------5--------------
A|-----3--------------------------------------------------6--------------------5--------------
E|-----------------------------------------------------------------------------3--------------

             C                       Fm                                     C  Fm             
E|-----------0-----------------------1--------------------------------------0--1--------------
B|-----------1-----------------------1--------------------------------------1--1--------------
G|-----------0-----------------------1--------------------------------------0--1--------------
D|-----------2-----------------------3--------------------------------------2--3--------------
A|-----------3-----------------------3--------------------------------------3--3--------------
E|-----------------------------------1-----------------------------------------1--------------

                   A#       C  Fm                      C#       
E|-----------------1--------0--1-----------------------4--------
B|-----------------3--------1--1-----------------------6--------
G|-----------------3--------0--1-----------------------6--------
D|-----------------3--------2--3-----------------------6--------
A|-----------------1--------3--3-----------------------4--------
E|-----------------------------1--------------------------------

tabs and chords, guitar tabs, music transcription, music technology, deep learning, music information retrieval, transcribe into tabs & chords, chordify, music renditions, songsterr, reverbnation, tabulature, bollywood chords, ultimate guitar, yousician, guitar lessons, acoustic guitar, electric guitar, guitar tuner, 911 tabs