Guitar Tabs for Humsafar - Badrinath Ki Dulhania Tabs

(/) Slide Up  (\) Slide Down  (h) Hammer On  (p) Pull Off  (b) Bend (r) Release (v) Vibrato

Tabs for Song : Humsafar

Sun mere humsafar Kya tujhe itni si bhi khabar
E|--------------------------------------------------
B|--8--8--7--7--------------------------------------
G|--------------7---7/9--11----9--12-12-11-12-11-9--
D|--------------------------12----------------------
A|--------------------------------------------------
E|--------------------------------------------------

Ki teri saanse chalti jidhar Rahunga bas wahi umrr bhar
E|--------------------------------------------------------------
B|--------------------------------------------------------------
G|--11----9--12-12-11-11----9--9--9--9---9/11-11-9--9-----------
D|-----12----------------12----------------------------10-10/12-
A|--------------------------------------------------------------
E|--------------------------------------------------------------

Rahunga bas wahi umrr bhar haaye
E|--------------------------------------------------
B|--------------------------------------------------
G|--9--9--9---9/11-11-11-11-11-12p11-----9/11\9-----
D|-----------------------------------12----------12-
A|--------------------------------------------------
E|--------------------------------------------------

Jitni haseen ye mulakatein hai Unse bhi pyari teri baatein hai
E|--10-10-8--8--7--7--7--8------8/10-10-10-10-8--8--7--7--7--8-----7--7--
B|--------------------------10----------------------------------10-------
G|-----------------------------------------------------------------------
D|-----------------------------------------------------------------------
A|-----------------------------------------------------------------------
E|-----------------------------------------------------------------------

Baaton mein teri jo kho jaate hai
E|--7--8--10-8--8--7--7--7--8------8/10-10-
B|-----------------------------10----------
G|-----------------------------------------
D|-----------------------------------------
A|-----------------------------------------
E|-----------------------------------------

Aaun na hosh mein main kabhi
E|-----------7--------7-----7--7-----
B|--8--8--8-----10-10----8--------10-
G|-----------------------------------
D|-----------------------------------
A|-----------------------------------
E|-----------------------------------

Baahon mein hai teri zindagi haaye
E|-----------7--------7-----------------------
B|--8--8--8-----10-10----10-8--8--------------
G|---------------------------------9/11\9--7--
D|--------------------------------------------
A|--------------------------------------------
E|--------------------------------------------

Sun mere humsafar Kya tujhe itni si bhi khabar
E|--------------------------------------------------
B|--8--8--7--7--------------------------------------
G|--------------7---7/9--11----9--12-12-11-12-11-9--
D|--------------------------12----------------------
A|--------------------------------------------------
E|--------------------------------------------------
tabs and chords, guitar tabs, music transcription, music technology, deep learning, music information retrieval, transcribe into tabs & chords, chordify, music renditions, songsterr, reverbnation, tabulature, bollywood chords, ultimate guitar, yousician, guitar lessons, acoustic guitar, electric guitar, guitar tuner, 911 tabs