Guitar Tabs for Humsafar

Tabs for Song : Humsafar

sun mere humsafar

E|--------------------------------
B|--------------------------------
G|--0-----0--0--------------------
D|-----------------4--4--0--2-----
A|--------------------------------
E|--------------------------------

kya tujhe itni si bhi khabar

E|-----------------------------------
B|-----------------------------------
G|-----------0--0--0--0--------------
D|--4--0--2--------------4--0--2-----
A|-----------------------------------
E|-----------------------------------

ki teri saanse chalti jidhar

E|-----------------------------------
B|-----------------------------------
G|-----------0--0--0--0--------------
D|--4--0--2--------------4--0--2-----
A|-----------------------------------
E|-----------------------------------

rahunga bas wahi umrr bhar

E|-----------------------------------
B|-----------------------------------
G|-----------------------------------
D|--2--0--2--4--4--4--2--2-----------
A|--------------------------3--5-----
E|-----------------------------------

rahunga bas wahi umrr bhar,haaye

E|-----------------------------------------------
B|-----------------------------------------------
G|--------------2--0--0-----0--0-----------------
D|--2--0--2--4-----------4-----------0--2--0-----
A|-----------------------------------------------
E|-----------------------------------------------

tabs and chords, guitar tabs, music contests, music covers, songsterr, reverbnation, renditions, tabulature, bollywood chords, ultimate guitar, yousician, guitar lessons, torrins, fender, gibson, acoustic guitar, electric guitar, youtube covers, gootar, guitar tuner, A-Z tabs, 911 tabs