Guitar Tabs for Hua Hai Aaj Pehli Bar Guitar Intro

E|--------------------------------------------------
B|-----10-9--10-9--10----------10h12p10----9--10----
G|--11-------------------11-------------------------
D|--------------------------------------------------
A|--------------------------------------------------
E|--------------------------------------------------

E|--------------------------------------------
B|-----10-9--10-9--10-------------------------
G|--11-------------------11--9h11p9-----------
D|-----------------------------------12-11----
A|--------------------------------------------
E|--------------------------------------------
tabs and chords, guitar tabs, music contests, music covers, songsterr, reverbnation, renditions, tabulature, bollywood chords, ultimate guitar, yousician, guitar lessons, torrins, fender, gibson, acoustic guitar, electric guitar, youtube covers, gootar, guitar tuner, A-Z tabs, 911 tabs