Guitar Tabs for Thoda sa pyaar hua hai

Tabs for Song : Thoda Sa Pyar Hua Hai

Thoda Sa Pyar Hua Hai 
E|--------------------------------
B|-----0--------------2--0--0-----
G|--2-----2--0--2--2--------------
D|--------------------------------
A|--------------------------------
E|--------------------------------

Thoda Hai Baki
E|-----------------------
B|-----0-----------------
G|--2-----2--0--2--2-----
D|-----------------------
A|-----------------------
E|-----------------------

Thoda Sa Pyar Hua Hai 
E|--------------------------------
B|-----0--------------3--2--0-----
G|--2-----2--0--2--2--------------
D|--------------------------------
A|--------------------------------
E|--------------------------------
 
Thoda Hai Baki
E|-----------------------
B|-----0-----------------
G|--2-----2--0--2--2-----
D|-----------------------
A|-----------------------
E|-----------------------

Hum To Dil De Hi Chuke 
E|-----------2--0--2--0-----------
B|-----2--3--------------3--3-----
G|--2-----------------------------
D|--------------------------------
A|--------------------------------
E|--------------------------------

ho ho hoh ho
E|-----------2--0--0-----------
B|-----2--3-----------3--3-----
G|--2--------------------------
D|-----------------------------
A|-----------------------------
E|-----------------------------

Hum To Dil De Hi Chuke 
E|-----------2--0--2--0-----------
B|-----2--3--------------3--3-----
G|--2-----------------------------
D|--------------------------------
A|--------------------------------
E|--------------------------------

Bas Teri Haan Hai Baki
E|--0-----------------------------
B|-----3--2-----0--2--2--0--------
G|--------------------------2-----
D|--------------------------------
A|--------------------------------
E|--------------------------------

Thoda Sa Pyar Hua Hai 
E|--------------------------------
B|-----0--------------2--0--0-----
G|--2-----2--0--2--2--------------
D|--------------------------------
A|--------------------------------
E|--------------------------------

Thoda Hai Baki
E|-----------------------
B|-----0-----------------
G|--2-----2--0--2--2-----
D|-----------------------
A|-----------------------
E|-----------------------

Thoda Sa Pyar Hua Hai 
E|--------------------------------
B|-----0--------------3--2--0-----
G|--2-----2--0--2--2--------------
D|--------------------------------
A|--------------------------------
E|--------------------------------
 
Thoda Hai Baki
E|-----------------------
B|-----0-----------------
G|--2-----2--0--2--2-----
D|-----------------------
A|-----------------------
E|-----------------------

Kaun Sa Mod Aaya 
E|--5--2--0--2--0--------------
B|-----------------3--3--3-----
G|-----------------------------
D|-----------------------------
A|-----------------------------
E|-----------------------------

Zindagi Ke Safar Mein
E|-----0-----------0--0--0-----
B|--3-----3--1--1--------------
G|-----------------------------
D|-----------------------------
A|-----------------------------
E|-----------------------------

Bas Gaya Tu Hi Tu 
E|-----------0--0--0--5-----
B|--1--1--1-----------------
G|--------------------------
D|--------------------------
A|--------------------------
E|--------------------------

Ab To Meri Nazar Mein
E|--5--2--0--2--0--------------
B|-----------------3--3--3-----
G|-----------------------------
D|-----------------------------
A|-----------------------------
E|-----------------------------

saath hum denge tera
E|-----2--3--7--7--5--3--3-----
B|--3--------------------------
G|-----------------------------
D|-----------------------------
A|-----------------------------
E|-----------------------------

saath hum denge tera
E|-----2--3--7--7--5--3--3-----
B|--3--------------------------
G|-----------------------------
D|-----------------------------
A|-----------------------------
E|-----------------------------

tujhse waada hai baaki
E|--5--3--2--0--2-----2--2--2--0--------
B|--------------------------------3-----
G|--------------------------------------
D|--------------------------------------
A|--------------------------------------
E|--------------------------------------

tabs and chords, guitar tabs, music transcription, music technology, deep learning, music information retrieval, transcribe into tabs & chords, chordify, music renditions, songsterr, reverbnation, tabulature, bollywood chords, ultimate guitar, yousician, guitar lessons, acoustic guitar, electric guitar, guitar tuner, 911 tabs