Guitar Tabs for Aaj unse milna hai humein

Tabs for Song : Aaj Unse Milna Hai Humein

Aaj Unse Milna Hai Humein
E|--------3--1-----------------------------
B|--3-----------4--3--1-----------3--4-----
G|-----------------------3--2--3-----------
D|-----------------------------------------
A|-----------------------------------------
E|-----------------------------------------

Aaj Unse Milna Hai Humein
E|--------------------------------------
B|--------1-----------------------------
G|--2--------3--3--2--0-----2--0--0-----
D|-----------------------3--------------
A|--------------------------------------
E|--------------------------------------

Chal Unke Liye Kuchh Lete Chalein
E|-----------------------------------
B|-----------------------------------
G|--3--2--3--2--3--2-----2--2--2-----
D|--------------------3--------------
A|-----------------------------------
E|-----------------------------------

Aur Unko Duaayein Dete Chalein
E|-----------------------------------
B|-----------------------------------
G|--3--2--3--2--3--2-----2--0--0-----
D|--------------------3--------------
A|-----------------------------------
E|-----------------------------------

Thodi Gunjiya Wunjiya Lete Chalein
E|-----------------------------------
B|-----------------------------------
G|--3--2--3--2--3--2-----2--2--2-----
D|--------------------3--------------
A|-----------------------------------
E|-----------------------------------

Thodi Barfi Warfi Lete Chalein
E|-----------------------------------
B|-----------------------------------
G|--3--2--3--2--3--2-----2--0--0-----
D|--------------------3--------------
A|-----------------------------------
E|-----------------------------------

Aaj Unse Milna Hai Humein
E|--------3--1-----------------------------
B|--3-----------4--3--1-----------3--4-----
G|-----------------------3--2--3-----------
D|-----------------------------------------
A|-----------------------------------------
E|-----------------------------------------

Aaj Unse Milna Hai Humein
E|--------------------------------------
B|--------1-----------------------------
G|--2--------3--3--2--0-----2--0--0-----
D|-----------------------3--------------
A|--------------------------------------
E|--------------------------------------

Mehlon Ki Raani Hai,Sunder Sayaani Hai
E|-----------------------------------------
B|--3--3--1-----1--1--3--3--1-----1--1-----
G|-----------3-----------------3-----------
D|-----------------------------------------
A|-----------------------------------------
E|-----------------------------------------

Wo Khaandani Hai Jaan-E-Dil
E|--------------------------------
B|--3--3--1-----1-----------1-----
G|-----------3-----3--2--3--------
D|--------------------------------
A|--------------------------------
E|--------------------------------

Kya Kya Kharidein Hum
E|-----------------------------------------
B|--1--1--------------1--1-----------------
G|--------3--2--3--2--------3--2--3--2-----
D|-----------------------------------------
A|-----------------------------------------
E|-----------------------------------------

Kya De Nishani Ye Hai Musqil
E|--------------------------------
B|--1--1--------------------------
G|--------3--2--3--2--0--0--0-----
D|--------------------------------
A|--------------------------------
E|--------------------------------

Thodi Mathri Vattri Lete Chalein
E|-----------------------------------
B|-----------------------------------
G|--3--2--3--2--3--2-----2--2--2-----
D|--------------------3--------------
A|-----------------------------------
E|-----------------------------------

Thodi Chalki Chevda Lete Chalein
E|-----------------------------------
B|-----------------------------------
G|--3--2--3--2--3--2-----2--0--0-----
D|--------------------3--------------
A|-----------------------------------
E|-----------------------------------

Kuch Teekha Veekha Lete Chalein
E|-----------------------------------
B|-----------------------------------
G|--3--2--3--2--3--2-----2--2--2-----
D|--------------------3--------------
A|-----------------------------------
E|-----------------------------------

Kuch Khatta Meetha Lete Chalein
E|-----------------------------------
B|-----------------------------------
G|--3--2--3--2--3--2-----2--0--0-----
D|--------------------3--------------
A|-----------------------------------
E|-----------------------------------

Aaj Unse Milna Hai Humein
E|-----3--1-----------------------------
B|--3--------4--3--1-----------3--4-----
G|--------------------3--2--3-----------
D|--------------------------------------
A|--------------------------------------
E|--------------------------------------

Aaj Unse Milna Hai Humein
E|-----------------------------------
B|-----1-----------------------------
G|--2-----3--3--2--0-----2--0--0-----
D|--------------------3--------------
A|-----------------------------------
E|-----------------------------------
tabs and chords, guitar tabs, music transcription, music technology, deep learning, music information retrieval, transcribe into tabs & chords, chordify, music renditions, songsterr, reverbnation, tabulature, bollywood chords, ultimate guitar, yousician, guitar lessons, acoustic guitar, electric guitar, guitar tuner, 911 tabs