Guitar Tabs for Pyaar hua ekraar hua hai

Tabs for Song : Pyaar hua ekraar hua hai

Pyar Hua Iqraar Hua Hai
E|-----------------------------------------------
B|-----------------------------------------------
G|-----------------------------------------------
D|--5-----7--8--7--8--7--5-----7--8--7--8--7-----
A|-----------------------------------------------
E|-----------------------------------------------

Pyar se phir kyun darta hai dil
E|-----------------------------------------
B|-----------------------------------------
G|-----------------------------------------
D|--5-----7--8--7--5-----------------------
A|--------------------8--6--6--8--6--5-----
E|-----------------------------------------

Kahta hai dil, rasta mushkil
E|-----------------------------------------
B|-----------------------------------------
G|--7-----8--5--7-----7--7--7--8--5--7-----
D|-----------------------------------------
A|-----------------------------------------
E|-----------------------------------------

Malum nahi hai kahan manzil
E|-----------------------------------------------
B|-----------------------------------------------
G|--7--5-----------------------5--------5--7-----
D|--------8-----7--7-----7--7-----8--8-----------
A|-----------------------------------------------
E|-----------------------------------------------


tabs and chords, guitar tabs, music transcription, music technology, deep learning, music information retrieval, transcribe into tabs & chords, chordify, music renditions, songsterr, reverbnation, tabulature, bollywood chords, ultimate guitar, yousician, guitar lessons, acoustic guitar, electric guitar, guitar tuner, 911 tabs