Guitar Tabs for Havana - Camila Cabello

Havana, ooh na-na (ay)

Half of my heart is in Havana, ooh-na-na (ay, ay)
He took me back to East .......
E|--------------------------------------------------------------------------------------------
B|--------------------------------------------------------------------------------------------
G|---3/7--7-----------7--5--7---7/8--7--5--------7--7--------------7--5--7---7/8--7--5--------
D|-----------8--8--5--------------------------8--------8--8--5--------------------------8-----
A|--------------------------------------------------------------------------------------------
E|--------------------------------------------------------------------------------------------

Atlanta, na-na-na
Oh, but my heart is in Havana (ay)
There's somethin' 'bout his manners (uh huh)
Havana, ooh na-na (uh)
E|--------------------------------------------------------------------------------------------------------
B|--------------------------------------------------------------------------------------------------------
G|--7--7-----------------7--5--7---7/8--7--5--------7--------7--5--7--5--------7--------------------------
D|-----------8--8--5-----------------------------8--------8-----------------8--------7--8--7--8--7--8-----
A|--------------------------------------------------------------------------------------------------------
E|--------------------------------------------------------------------------------------------------------

He didn't walk up with that "how you doin'?" (uh)
(When he came in the room)
He said there's a lot of girls I can do with (uh)
(But I can't without you)
E|--------------------------------------------------------------------------------------------------------------
B|--8--8--8--------------------------------------------------8--8--8--------------------------------------------
G|--------------7--7--7---7h8--7--5--7-----7--5--7--5--7--------------7--7--7---7h8--7--5--7--7--5--7--5--7-----
D|--------------------------------------------------------------------------------------------------------------
A|--------------------------------------------------------------------------------------------------------------
E|--------------------------------------------------------------------------------------------------------------

I'm doin' forever in a minute (hey)
(That summer night in June)
E|--------------------------------------------------
B|--8--8--8--8--10-10/11-10-8--10-------------------
G|-----------------------------------7--5--7--5--7--
D|--------------------------------------------------
A|--------------------------------------------------
E|--------------------------------------------------

And papa says he got malo in him (uh)
He got me feelin' like
E|-----------------------------------------------------------
B|--8--8--8--------------------------------------------------
G|--------------7--7--7---7h8--7--5--7--7--5--7--------------
D|--------------------------------------------------5--5--5--
A|-----------------------------------------------------------
E|-----------------------------------------------------------

Ooh-ooh-ooh, I knew it when I met him
I loved him when I left him
E|--------------10-8--6--8--5-----------------------------------------------------
B|---6/8--6--8--------------------6--6--6--6--6--8--------------------------------
G|--------------------------------------------------7--7--5--7--5--------7--------
D|--------------------------------------------------------------------8--------7--
A|--------------------------------------------------------------------------------
E|--------------------------------------------------------------------------------

Got me feelin' like
Ooh-ooh-ooh, and then I had to tell him
I had to go, oh na-na-na-na-na
E|--------------------------------10-8--6--8--5--------------------------------------------------------------
B|--8--8--8--8--8---6/8--6--8--------------------6--6--6--6--6--8--------------11-10-8--8--8--8--8--8--8-----
G|--------------------------------------------------------------------7--7--7--7-----------------------------
D|-----------------------------------------------------------------------------------------------------------
A|-----------------------------------------------------------------------------------------------------------
E|-----------------------------------------------------------------------------------------------------------

tabs and chords, guitar tabs, music transcription, music technology, deep learning, music information retrieval, transcribe into tabs & chords, chordify, music renditions, songsterr, reverbnation, tabulature, bollywood chords, ultimate guitar, yousician, guitar lessons, acoustic guitar, electric guitar, guitar tuner, 911 tabs