Guitar Tabs for Havana - Camila Cabello Fingerstyle

(/) Slide Up  (\) Slide Down  (h) Hammer On  (p) Pull Off  (b) Bend (r) Release (v) Vibrato

Tabs for Song : Havana Camila Cabello
E|--------------------------------------------------------------------------------------
B|--------0--0-----1-----0-----0-----0--------1--0--------0--0-----1-----0-----0--0--0--
G|--------0--------0--------------2--------2--2-----------0--------0--------------2-----
D|--------2-----------------------------------------------2-----------------------1-----
A|--------2-----3-----------2-----------2-----------------2-----3-----------2-----------
E|--0-----0-----------x-----------x-----------x-----0-----0-----------x-----------------

E|--------------------------------------------------------------------------------------------------------
B|-----0--0-----------1-----0-----0-----0--1---0h-1p0--------0--0-----------1-----0-----0-----0--1--0-----
G|--0--------0--0--------------------2-----------------2--0--------0--0--------------------2-----------2--
D|-----------------2-----------------------------------------------------2--------------------------------
A|-----------------3-----------2-----------2-----------------------------3-----------2-----------2--------
E|-----0-----x-----------x-----------x-----------------x-----0-----x-----------x-----------x-----------x--

E|-----------------------------------------------------------------------------------------------------
B|-----0--0-----------1-----0-----0-----0--1--0--------0--------0-----0--------0-----------------------
G|--0--------0--0--------------------2-----------2--0-----0--------2-----2--0-----------0-----0--------
D|-----------------2--------------------------------------------------------------4--------4-----4--2--
A|-----------------3-----------2-----------2-----------------------3-----------2-----------2-----------
E|-----0-----x-----------x-----------x-----------x-----0-----x-----------x-----------x-----------x-----

E|--0--0--0-----------------------------------------0--0--0--------------------------------------
B|-----------0--0--1--0-----0-----0-----0--------------------0--0--1--0-----0-----0-----0--------
G|-----------0-----------2-----------2-----2--0--------------0-----------2-----------2-----2--0--
D|-----------------------------------------------------------------------------------------------
A|-----------------3-----------------------------------------------3-----------------------------
E|--0--------x-----------x--------------------------0--------x-----------x-----------------------

E|--0--0--0--0--2--3---2h-3p2--0--2-----------------------0--0--0--------------------------------------
B|--------------------------------------0-----0--------------------0--0--1--0-----0-----0-----0--------
G|-----------------------------------------2-----2--0--------------0-----------2-----------2-----2--0--
D|-----------------------------------------------------------------------------------------------------
A|-----------------3-----------------------2-----------------------------3-----------------2-----------
E|--0--------x-----------------x-----------------x--------0--------x-----------x-----------------x-----

E|------------------5h7---5h-7p5-----5-----------------------------0-----------------------------------------------
B|---3/5------3/5-----------------8-----7--------3--3--3--3--3--3-----0-----0-----0--------0-----------------------
G|-----------------------------------------------------------------------------2-----2--0-----------0-----0--------
D|--------------------------------------------------------------------------------------------4--------4-----4--2--
A|-----------------------------------------------------------------------------3-----------2-----------2-----------
E|---0/---x---0/---------x-----------------x-----------------x-----0-----x------------x-----------x-----------x----

E|------------------5h7---5h-7p5-----5--------------------------0--------------0-----------3---2h-3p2--0--0--0--0--0--0--
B|---3/5------3/5-----------------8-----7-----3--3--3--3--3--3-----0--------------0-----0--------------0--0--0--0--0--0--
G|-----------------------------------------------------------------------------------------------------------------------
D|-----------------------------------------------------------------------------------------------------------------------
A|-----------------------------------------------------------------------------------------------------------------------
E|---0/---x---0/---------x-----------------x-----------------x--0--------x-----0-----------------------------------------









Song lyrics here
E|--
B|--
G|--
D|--
A|--
E|--

Song lyrics here
E|--
B|--
G|--
D|--
A|--
E|--

Now supports capo and sound effects for vibrato/pull-off/hammer/bends etc !!! Checkout help section
tabs and chords, guitar tabs, music transcription, music technology, deep learning, music information retrieval, transcribe into tabs & chords, chordify, music renditions, songsterr, reverbnation, tabulature, bollywood chords, ultimate guitar, yousician, guitar lessons, acoustic guitar, electric guitar, guitar tuner, 911 tabs