Guitar Tabs for Happier - Ed Sheeran

CHORDS USED:

    Am7    Fmaj7     C
e|-----0----|---0----|---0----|
B|-----1----|---1----|---1----|
G|-----0----|---2----|---0----|
D|-----2----|---3----|---2----|
A|-----0----|---0----|---3----|
E|----------|--------|--------|


[INTRO]
e|----------------------------|--------------------------|
B|----------------------------|-1------------------------|
G|--------0------0h-2p0--0--2-|-0-------0-----------0----| x2
D|-----2-----2---3------------|-0h2--------------2-----2-|
A|--0------------3------------|-3------------------------|
E|----------------------------|--------------------------|


[VERSE]
"Walking down 29th and park..."
e|----------------------------|--------------------------|
B|----------------------------|-1------------------------|
G|--------0------0h-2p0--0--2-|-0-------0-----------0----| x8
D|-----2-----2---3------------|-0h2--------------2-----2-|
A|--0------------3------------|-3------------------------|
E|----------------------------|--------------------------|


[CHORUS]
"Ain't nobody hurt you like I hurt you..."
"...cause baby you look happier..."
e|--0-----0-----0-----0----|---0-----0-----0-----0----|---0-----0-----0-----0----|---0-----0-----0-----0----|
B|--1-----1-----1-----1----|---1-----1-----1-----1----|---1-----1-----1-----1----|---1-----1-----1-----1----|
G|--0-----0-----0-----0----|---2-----2-----2-----2----|---0-----0-----0-----0----|---0-----0-----0-----0----| x8
D|--2-----2-----2-----2----|---3-----3-----3-----3----|---2-----2-----2-----2----|---2-----2-----2-----2----|
A|--0-----0-----0-----0----|---0-----0-----0-----0----|---3-----3-----3-----3----|---3-----3-----3-----3----|
E|-------------------------|--------------------------|--------------------------|--------------------------|


[VERSE]
"Sat in the corner of the room..."
e|--0----------------|---0----------------|---0----------------|-----------------|
B|--1----------------|---1----------------|---1----------------|-----------------|
G|--0----------------|---2----------------|---0----------------|-----------------| x4
D|--2----------------|---3----------------|---2----------------|-----------------|
A|--0----------------|---0----------------|---3----------------|-----------------|
E|-------------------|--------------------|--------------------|-----------------|


[CHORUS]
"Ain't nobody hurt you like I hurt you..."
"...cause baby you look happier..."
e|--0-----0-----0-----0----|---0-----0-----0-----0----|---0-----0-----0-----0----|---0-----0-----0-----0----|
B|--1-----1-----1-----1----|---1-----1-----1-----1----|---1-----1-----1-----1----|---1-----1-----1-----1----|
G|--0-----0-----0-----0----|---2-----2-----2-----2----|---0-----0-----0-----0----|---0-----0-----0-----0----| x8
D|--2-----2-----2-----2----|---3-----3-----3-----3----|---2-----2-----2-----2----|---2-----2-----2-----2----|
A|--0-----0-----0-----0----|---0-----0-----0-----0----|---3-----3-----3-----3----|---3-----3-----3-----3----|
E|-------------------------|--------------------------|--------------------------|--------------------------|


[BRIDGE]
"Hey yeah, hey yeahh.."
e|--0-----0-----0-----0----|---0-----0-----0-----0----|---0-----0-----0-----0----|---0-----0-----0-----0----|
B|--1-----1-----1-----1----|---1-----1-----1-----1----|---1-----1-----1-----1----|---1-----1-----1-----1----|
G|--0-----0-----0-----0----|---2-----2-----2-----2----|---0-----0-----0-----0----|---0-----0-----0-----0----| x4
D|--2-----2-----2-----2----|---3-----3-----3-----3----|---2-----2-----2-----2----|---2-----2-----2-----2----|
A|--0-----0-----0-----0----|---0-----0-----0-----0----|---3-----3-----3-----3----|---3-----3-----3-----3----|
E|-------------------------|--------------------------|--------------------------|--------------------------|


[OUTRO]
"Baby you look happier..."
e|--0----------------|---0----------------|---0----------------|-----------------|
B|--1----------------|---1----------------|---1----------------|-----------------|
G|--0----------------|---2----------------|---0----------------|-----------------| x4
D|--2----------------|---3----------------|---2----------------|-----------------|
A|--0----------------|---0----------------|---3----------------|-----------------|
E|-------------------|--------------------|--------------------|-----------------|


tabs and chords, guitar tabs, music transcription, music technology, deep learning, music information retrieval, transcribe into tabs & chords, chordify, music renditions, songsterr, reverbnation, tabulature, bollywood chords, ultimate guitar, yousician, guitar lessons, acoustic guitar, electric guitar, guitar tuner, 911 tabs