Guitar Tabs for Hanks Htb Intro

(/) Slide Up  (\) Slide Down  (h) Hammer On  (p) Pull Off  (b) Bend (r) Release (v) Vibrato (x) Muted

Tabs for Song : 
Key of F
Original transcription TIP: Ignore the d string
E|-----------------------------------------------------------------------------------------
B|-----------9-----8-----8--6-----9--9--8--9--8--------6--6--6-----------------10-10v------
G|--5--7--10-9-----------9--------9--9--------9-----7--7--7--7--------5--7--10-7--7v----10-
D|-----------8-----------8--------8--8--------8--------7--7--7-----------------7--7v-------
A|-----------------------------------------------------------------------------------------
E|-----------------------------------------------------------------------------------------

E|--1--1--1--1--1--1--1--1--1--1--1--1--1--1--1--1--1--1--1--1--1--1--1--1--1--1--1--1--1--1--1--1--
B|--1--1--1--1--1--1--1--1--1--1--1--1--1--1--1--1--3--3--3--3--3--3--3--3--1--1--1--1--1--1--1--1--
G|--2--2--2--2--2--2--2--2--2--2--2--2--2--2--2--2--3--3--3--3--3--3--3--3--2--2--2--2--2--2--2--2--
D|--3--3--3--3--3--3--3--3--3--3--3--3--3--3--3--3--3--3--3--3--3--3--3--3--3--3--3--3--3--3--3--3--
A|--3--3--3--3--3--3--3--3--3--3--3--3--3--3--3--3--1--1--1--1--1--1--1--1--3--3--3--3--3--3--3--3--
E|--1--1--1--1--1--1--1--1--1--1--1--1--1--1--1--1--1--1--1--1--1--1--1--1--1--1--1--1--1--1--1--1--

E|--------------------------1--1--1--1--1--1--1--1--
B|--1--1--1--1--1--1--1--1--1--1--1--1--1--1--1--1--
G|--------------------------2--2--2--2--2--2--2--2--
D|--2--2--2--2--2--2--2--2--3--3--3--3--3--3--3--3--
A|--3--3--3--3--3--3--3--3--3--3--3--3--3--3--3--3--
E|--------------------------1--1--1--1--1--1--1--1--

Octave higher
E|--8--10-13-12----15----12-13----12-12-15-16-12----10-10-10-10-------8--10-13-10-10v---13-
B|-----------11----------11-------11-11-------11-------10-10-10----------------10-10v------
G|-----------13----------12-------13-13-------12-------10-10-10----------------14-14v------
D|-----------------------------------------------------------------------------------------
A|-----------------------------------------------------------------------------------------
E|-----------------------------------------------------------------------------------------

Now supports capo and sound effects for vibrato/pull-off/hammer/bends/mutes etc !!! Checkout help section
tabs and chords, guitar tabs, music transcription, music technology, deep learning, music information retrieval, transcribe into tabs & chords, chordify, music renditions, songsterr, reverbnation, tabulature, bollywood chords, ultimate guitar, yousician, guitar lessons, acoustic guitar, electric guitar, guitar tuner, 911 tabs