Guitar Tabs for Jan Gan Man(national Anthem)

BPM : 200

Jan Gan Man Adhinayak Jaya hey 
E|--------0--0--0--0--0-----0--0--0-----0--0-----0--1--
B|--1--3--------------------------------------3--------
G|-----------------------------------------------------
D|-----------------------------------------------------
A|-----------------------------------------------------
E|-----------------------------------------------------

Bharat Bhagya Vidhata
E|-----1-----1--1--0-----0--0-----1--0--
B|-----------------------------3--------
G|--------------------------------------
D|--------------------------------------
A|--------------------------------------
E|--------------------------------------

Punjab Sindh Gujarat Maratha
E|-----------------3-----3--3-----3--3--3--3-----3--3--1--5--3--
B|-----------1--------------------------------------------------
G|--------------------------------------------------------------
D|--------------------------------------------------------------
A|--------------------------------------------------------------
E|--------------------------------------------------------------

Dravid Utkal Bang
E|-----1-----1--1--0-----0--0-----1--0--
B|-----------------------------3--------
G|--------------------------------------
D|--------------------------------------
A|--------------------------------------
E|--------------------------------------

Vindhya Himachal Yamuna Ganga
E|-----------0-----0--0--0-----0-----3--3--3-----1-----1--
B|--------------------------------3-----------------------
G|--------------------------------------------------------
D|--------------------------------------------------------
A|--------------------------------------------------------
E|--------------------------------------------------------

Uchhal jaladhi tarang
E|-----0-----0--0--0-----0--0-----1--0--
B|-----------------------------3--------
G|--------------------------------------
D|--------------------------------------
A|--------------------------------------
E|--------------------------------------

Tav Shubname jaage
E|-----------------3--3--3-----3-----1--5--3--
B|-----------1--1-----------------------------
G|--------------------------------------------
D|--------------------------------------------
A|--------------------------------------------
E|--------------------------------------------

Tav Shubh Ashish Mange
E|-----------------1--1--1-----1-----0--3--1--
B|-----------3--3-----------------------------
G|--------------------------------------------
D|--------------------------------------------
A|--------------------------------------------
E|--------------------------------------------

Gaye tav jaya gatha
E|-----------1-----1--1--0-----0--0-----1--0--
B|-----------------------------------3--------
G|--------------------------------------------
D|--------------------------------------------
A|--------------------------------------------
E|--------------------------------------------

jan gan mangal daayak jay he 
E|-----------3--3--3--3--3-----3--3--3-----3--3--1--5--3--
B|--------------------------------------------------------
G|--------------------------------------------------------
D|--------------------------------------------------------
A|--------------------------------------------------------
E|--------------------------------------------------------

bhaarat bhaagy vidhaata
E|-----1-----1--1--0-----0--0-----1--0--
B|-----------------------------3--------
G|--------------------------------------
D|--------------------------------------
A|--------------------------------------
E|--------------------------------------

Jaya hai Jaya hai Jaya hai
E|-----------8--7--8-----------------7--5--7-----------------3--3--5--
B|--------------------------------------------------------------------
G|--------------------------------------------------------------------
D|--------------------------------------------------------------------
A|--------------------------------------------------------------------
E|--------------------------------------------------------------------

Jaya jaya jaya jaya hai
E|-----------------------------0--0-----0--1--
B|-----------------1--1--3--3--------3--------
G|--------------------------------------------
D|--------------------------------------------
A|--------------------------------------------
E|--------------------------------------------


tabs and chords, guitar tabs, music transcription, music technology, deep learning, music information retrieval, transcribe into tabs & chords, chordify, music renditions, songsterr, reverbnation, tabulature, bollywood chords, ultimate guitar, yousician, guitar lessons, acoustic guitar, electric guitar, guitar tuner, 911 tabs