Ukulele Tabs for Jana Gana Mana

(/) Slide Up  (\) Slide Down  (h) Hammer On  (p) Pull Off  (b) Bend (r) Release (v) Vibrato (x) Muted

Tabs for Song : 

Song lyrics here
A|--------------------------------------------------------------------------------
E|--0--2-----4--4--4--4--4--4--4-----2--4--5-----4--4--4-----2--2--2-----0--2--0--
C|--------------------------------------------------------------------------------
G|--------------------------------------------------------------------------------

A|-----------------------------------------------------------------------------
E|--0--7--7--7--7--7--7--7--7--7--6--8--7-----5--5--5-----4--4--4-----2--5--4--
C|-----------------------------------------------------------------------------
G|-----------------------------------------------------------------------------

A|--------------------------------------------------------------------------
E|--4--4--4--4---4/7--7--7-----5--5--5-----4--4--4-----2--2--2-----0--2--0--
C|--------------------------------------------------------------------------
G|--------------------------------------------------------------------------

A|--------------------------------------------------------------------------------------------
E|--0--2-----4--4--4-----4--4--4-----4--4--4-----2--4--5-----4--4--4-----2--2--2-----0--2--0--
C|--------------------------------------------------------------------------------------------
G|--------------------------------------------------------------------------------------------

Song lyrics here
A|--------------------------------------------------------------------------------------
E|--0--0--7--7--7--7--7--7--7--7--7--7-----6--8--7-----5--5--5-----5--5--5-----2--5--4--
C|--------------------------------------------------------------------------------------
G|--------------------------------------------------------------------------------------

A|--7--6--7-----6--4--6-----4--2--4--
E|-----------------------------------
C|-----------------------------------
G|-----------------------------------

A|--------------------------------
E|--0--0--2--2--4--4-----2--4--5--
C|--------------------------------
G|--------------------------------

Paste any tab in acousterr's tab maker and we'll play it !!!
Now supports capo and sound effects for vibrato/pull-off/hammer/bends/mutes etc !!! Checkout help section
tabs and chords, guitar tabs, music transcription, music technology, deep learning, music information retrieval, transcribe into tabs & chords, chordify, music renditions, songsterr, reverbnation, tabulature, bollywood chords, ultimate guitar, yousician, guitar lessons, acoustic guitar, electric guitar, guitar tuner, 911 tabs