Guitar Tabs for Smiley Bates - Flat Top Chimes (picking Melodie Only)

(/) Slide Up  (\) Slide Down  (h) Hammer On  (p) Pull Off  (b) Bend (r) Release (v) Vibrato (x) Muted
Set guitar half step up

Tabs for Song : Flat top chimes by Smiley Bates - please note, 12th and 7th fret melodie is all 
pinch harmonics which acousterr does not support, but be aware this is what you need to do here. 

  N.H. ------------------------------------------------------------------------------------------|
E|--------------------------12-------------------------------------------------------------------
B|--12-------------12-------------------7--------------7--------12----------12-------------12----
G|--------12----12----12-------12-------------7-----7-----7--------12-------------12----12----12-
D|-----------12----------------------------------7-----------------------------------12----------
A|-----------------------------------------------------------------------------------------------
E|-----------------------------------------------------------------------------------------------
   N.H -----------------------------------------|
E|-----12----------------------------------------------------7--8--10-7--------7--8--10----8--------------
B|-----------------7--------------7--------12-------------8--------------8--10-------------------8--------
G|--------12-------------7-----7-----7--------12-------7-----------------------------------------------9--
D|--------------------------7-----------------------------------------------------------------------------
A|--------------------------------------------------------------------------------------------------------
E|--------------------------------------------------------------------------------------------------------

E|-----8--------------------10---7-8-----7----------------7-----8--9--10----------7--8--10-7--------7--
B|--------8-----------7-----------------------10-7--8--------------------------8--------------8--10----
G|-----------9--7--------------------------------------------------------------------------------------
D|-----------------------------------------------------------------------------------------------------
A|-----------------------------------------------------------------------------------------------------
E|-----------------------------------------------------------------------------------------------------

E|-----------------7--8--10----8--------------------8--------------------10-7--8-----7-----------------
B|--8--------8-----------------------8-----------------8-----------7-----------------------10-7--8-----
G|-----7-----------------------------------9--------------9--7-----------------------------------------
D|-----------------------------------------------------------------------------------------------------
A|-----------------------------------------------------------------------------------------------------
E|-----------------------------------------------------------------------------------------------------

E|-----------------------------------------------12-------------------------------------------------------
B|--------------8--------12-------------12-------------------7--------------7--------12----------12-------
G|--7--------------------------12----12----12-------12-------------7-----7-----7--------12-------------12-
D|--------9-----------------------12----------------------------------7-----------------------------------
A|--------------------------------------------------------------------------------------------------------
E|--------------------------------------------------------------------------------------------------------

E|-----------------12----------------------------------------------------7--8--10-7--------7--8--10----8--
B|--------12-------------------7--------------7--------12-------------8--------------8--10----------------
G|-----12----12-------12-------------7-----7-----7--------12-------7--------------------------------------
D|--12----------------------------------7-----------------------------------------------------------------
A|--------------------------------------------------------------------------------------------------------
E|--------------------------------------------------------------------------------------------------------

E|--------------------8--------------------10-7--8-----7-----------------------7--8--10-7--------7--8--10-
B|-----8-----------------8-----------7-----------------------10-7--8--7--8--10-------------8--10----------
G|-----------9--------------9--7--------------------------------------------------------------------------
D|--------------------------------------------------------------------------------------------------------
A|--------------------------------------------------------------------------------------------------------
E|--------------------------------------------------------------------------------------------------------

E|--7--------7-----------------7--8--10----8--------------------8--------------------10-7--8-----7-----------
B|-----8--10----8--------8-----------------------8-----------------8-----------7-----------------------10-7--
G|-----------------7-----------------------------------9--------------9--7-----------------------------------
D|-----------------------------------------------------------------------------------------------------------
A|-----------------------------------------------------------------------------------------------------------
E|-----------------------------------------------------------------------------------------------------------

E|-----------------------------------------------------12----------------------------------------------------
B|--8-----------------8--------12-------------12-------------------7--------------7--------12----------12----
G|--------7--------------------------12----12----12-------12-------------7-----7-----7--------12-------------
D|--------------9-----------------------12----------------------------------7--------------------------------
A|-----------------------------------------------------------------------------------------------------------
E|-----------------------------------------------------------------------------------------------------------

E|--------------------12-------------------------------------------------------------
B|-----------12-------------------7-----------------------7--------------12----------
G|--12----12----12-------12-------------7-----------7-----------7-----------------12-
D|-----12-------------------------------------7--------------------------------------
A|-----------------------------------------------------------------------------------
E|-----------------------------------------------------------------------------------





Paste any tab in acousterr's tab maker and we'll play it !!!
Now supports capo and sound effects for vibrato/pull-off/hammer/bends/mutes etc !!! Checkout help section
tabs and chords, guitar tabs, music transcription, music technology, deep learning, music information retrieval, transcribe into tabs & chords, chordify, music renditions, songsterr, reverbnation, tabulature, bollywood chords, ultimate guitar, yousician, guitar lessons, acoustic guitar, electric guitar, guitar tuner, 911 tabs