Guitar Tabs for Haert

(/) Slide Up  (\) Slide Down  (h) Hammer On  (p) Pull Off  (b) Bend (r) Release (v) Vibrato (x) Muted

Tabs for Song : 

Intro x2

E|--------------------------------------------------------------------------------------------------
B|--------------------------------------------------------------------------------------------------
G|-----------------2--4--2--------------------------------------------------------------------------
D|------------2h4-----------4-----------------------------------------------------------------------
A|--2--2-----------------------------------------5--7---7/9--7-----------9--7------------5h7--5-----
E|--------------------------------2--2------5h7--------------------3--3-----------5--5-----------7--

Verse:

E|-----------------------------------
B|-----------------------------------
G|-----------------------------------
D|-----------------------------------
A|--2--2-----------------------------
E|-----------2--2-----3--3-----5--5--

Chorus:

E|--------------------------------------------------------------------------------------------
B|--------------------------------------------------------------------------------------------
G|-----------------------------------------------------------------------------7--9---9b-9b7--
D|--9--9--7--7--------------------7--9-----------9--9--7--7--------7------7h9-----------------
A|--------------9--9--7------7h9-----------------------------9--9-----------------------------
E|--------------------------------------------------------------------------------------------

Paste any tab in acousterr's tab maker and we'll play it !!!
Now supports capo and sound effects for vibrato/pull-off/hammer/bends/mutes etc !!! Checkout help section
tabs and chords, guitar tabs, music transcription, music technology, deep learning, music information retrieval, transcribe into tabs & chords, chordify, music renditions, songsterr, reverbnation, tabulature, bollywood chords, ultimate guitar, yousician, guitar lessons, acoustic guitar, electric guitar, guitar tuner, 911 tabs