Guitar Tabs for Hachevu Kanadada Deepa

(/) Slide Up  (\) Slide Down  (h) Hammer On  (p) Pull Off  (b) Bend (r) Release (v) Vibrato (x) Muted

Tabs & Chords
BPM : 110.0
Check Track 2 for Chord Positions 

                                  A                                                           
E|--0--5--------0-----0--------------0-----5--------0-----0--------------------------------0--
B|--------8--7-----7--------------7-----------8--7--------------------------------------7-----
G|-----------------------7-----7--------------------------------7--6-----7-----6--7-----------
D|--------------------------------------------------------------------------------------------
A|--------------------------------------------------------------------------------------------
E|--------------------------------------------------------------------------------------------

                                     E        Em                                              
E|-----5-----7--5-----------0-----0-----0--5--------0-----0--------------0-----5--------0-----
B|-----------------8--8--7-----7--------------8--7-----7--------------7-----------8--7-----7--
G|-----------------------------------7-----------------------7-----7--------------------------
D|--------------------------------------------------------------------------------------------
A|--------------------------------------------------------------------------------------------
E|--------------------------------------------------------------------------------------------

                                                                                        
E|--0--------------------------------------------------0-----------------------0-----0--
B|-----------------7-----8--7-----8--7-----7-----8--7--------------------7--7-----------
G|-----7-----7-----------------------------------------------7--6--7--------------------
D|--------------------------------------------------------------------------------------
A|--------------------------------------------------------------------------------------
E|--------------------------------------------------------------------------------------

Guitar Tabs for Hachevu Kanadada Deepa






                                  A                                                           
E|--------------------------------0-----------------------------------------------------------
B|--------------------------------2-----------------------------------------------------------
G|--------------------------------2-----------------------------------------------------------
D|--------------------------------2-----------------------------------------------------------
A|--------------------------------0-----------------------------------------------------------
E|--------------------------------------------------------------------------------------------

                                     E        Em                                              
E|-----------------------------------0--------0-----------------------------------------------
B|-----------------------------------0--------0-----------------------------------------------
G|-----------------------------------1--------0-----------------------------------------------
D|-----------------------------------2--------2-----------------------------------------------
A|-----------------------------------2--------2-----------------------------------------------
E|-----------------------------------0--------0-----------------------------------------------

                                                                                        
E|--------------------------------------------------------------------------------------
B|--------------------------------------------------------------------------------------
G|--------------------------------------------------------------------------------------
D|--------------------------------------------------------------------------------------
A|--------------------------------------------------------------------------------------
E|--------------------------------------------------------------------------------------

tabs and chords, guitar tabs, music transcription, music technology, deep learning, music information retrieval, transcribe into tabs & chords, chordify, music renditions, songsterr, reverbnation, tabulature, bollywood chords, ultimate guitar, yousician, guitar lessons, acoustic guitar, electric guitar, guitar tuner, 911 tabs