Gavrilo (inst. Solo. Vln. Accord.) - Guitar Tabs

(/) Slide Up  (\) Slide Down  (h) Hammer On  (p) Pull Off  (b) Bend (r) Release (v) Vibrato (x) Muted

Tabs for Song : Gravilo - The Dreadnoughts
BPM : 200


    Apr├Ęs refrain
E|--------------------------------------------------------------------------------------------------------------------------------------------------------------------------------------------------
B|--------------------------------------------------------------------------------------------------------------------------------------------------------------------------------------------------
G|--------2--4--------4-----------2--4--------4-----------2--4--5--4--2--4--2--------------------------------2--------------------------------------------------------------------------------------
D|--2--5--------------------2--5--------------------2--5-----------------------5--2--4--------4--------1--4-----5--5--4--4--2--2--1--4--2--2--1--1--------------------------------------------------
A|--------------------------------------------------------------------------------------------------2-----------------------------------------------3--3--2--2--3--2--0-----0--2--0--2--------2-----
E|-----------------------------------------------------------------------------------------------------------------------------------------------------------------------3--------------------------

E|--------------------------------------------------------------------------------------------------------------------------------------------------------------------------------------------------
B|--------------------------------------------------------------------------------------------------------------------------------------------------------------------------------------------------
G|--------2--4--------4-----------2--4--------4-----------2--4--5--4--2--4--2--------------------------------2--------------------------------------------------------------0--2--------------------
D|--2--5--------------------2--5--------------------2--5-----------------------5--2--4--------4--------1--4-----5--5--4--4--2--2--1--4--2--2--1--1-----------------------4--------4--2--------2-----
A|--------------------------------------------------------------------------------------------------2-----------------------------------------------3--3--2--2--3--2--3-----------------------------
E|--------------------------------------------------------------------------------------------------------------------------------------------------------------------------------------------------







    Solo instru 
E|--------------------------------------------------------------------------------------------------------------------------------------------------------------------------------------------------
B|-----------------------------------------------------------------------------------------------------------------1--3--4--5--3--1-----------------------------------------------------------------
G|--------4-----4-----2--4--5--4--2-----2--0--------------2-----2-----0--2--4--5--4--2--4--2--0-----------0--2--4--------------------4--2--0--------3--0--------------------------------2-----------
D|--2-----------------------------------------4--------------------------------------------------4--2--4--------------------------------------4-----------4-----2--4--5--2--4-----4--5-----5--4--5--
A|--------------------------------------------------2-----------------------------------------------------------------------------------------------------------------------------------------------
E|--------------------------------------------------------------------------------------------------------------------------------------------------------------------------------------------------

E|--------------------------------------------------------------------------------------------------------------------------------------------------------------------------------
B|-----------------------------------------------------------------------------------------------------------------1--3--4--5--3--1-----------------------------------------------
G|--------4-----4-----2--4--5--4--2-----2--0--------------2-----2-----0--2--4--5--4--2--4--2--0-----------0--2--4--------------------4--2--0--------3--0--------------------------
D|--2-----------------------------------------4--------------------------------------------------4--2--4--------------------------------------4-----------4-----2--4--5--2--4-----
A|--------------------------------------------------2-----------------------------------------------------------------------------------------------------------------------------
E|--------------------------------------------------------------------------------------------------------------------------------------------------------------------------------

     2eme bout
E|-----------------------------------------------------------------------------------------------------------------------------0-----0-----0-----0-----0-----0--------------------------------------
B|--0-----1-----3-----5-----5-----1-----5-----3--5--3--1--0-----------1-----1-----------1-----------------------------------------4-----3-----1-----0-----------------------------------------------
G|--------------------------------------------------------------------------------2-----------4--5--4--2--0--------------0--4-----------------------------2-----0-----3--0--------------------------
D|--------------------------------------------------------------------------------------------------------------4-----2-----------------------------------------------------4-----2--4--5--2--4-----
A|--------------------------------------------------------------------------------------------------------------------------------------------------------------------------------------------------
E|--------------------------------------------------------------------------------------------------------------------------------------------------------------------------------------------------

E|-----------------------------------------------------------------------------------------------------------------------------0-----0-----0-----0-----0-----0-----------------------------------------------------------------
B|--0-----1-----3-----5-----5-----1-----5-----3--5--3--1--0-----------1-----1-----------1-----------------------------------------4-----3-----1-----0--------------------------------------------------------------------------
G|--------------------------------------------------------------------------------2-----------4--5--4--2--0--------------0--4-----------------------------2-----0-----3--0--------------------------------2--------------------
D|--------------------------------------------------------------------------------------------------------------4-----2-----------------------------------------------------4-----2--4--5--2--4-----4--5-----5--4--5--2--------
A|-----------------------------------------------------------------------------------------------------------------------------------------------------------------------------------------------------------------------------
E|-----------------------------------------------------------------------------------------------------------------------------------------------------------------------------------------------------------------------------
tabs and chords, guitar tabs, music transcription, music technology, deep learning, music information retrieval, transcribe into tabs & chords, chordify, music renditions, songsterr, reverbnation, tabulature, bollywood chords, ultimate guitar, yousician, guitar lessons, acoustic guitar, electric guitar, guitar tuner, 911 tabs