Guitar Tabs for Goop 2

(/) Slide Up  (\) Slide Down  (h) Hammer On  (p) Pull Off  (b) Bend (r) Release (v) Vibrato (x) Muted

Goop 2

Verse:

These are the chord shapes for the first part, listen to the song to get the rythm.

E|--10-7-----------10-7-----------7--5--------------
B|--8--8-----------7--7-----------5--5--------5--3--
G|--7--7-----------7--7-----------5--5--------4--4--
D|--9--9-----------7--7-----------5--5--------5--5--
A|--7--7--------------------------------------------
E|--7--7--------------------------------------------

Verse Lead Guitar:
E|-----------15----------------------------12----------------------------
B|-----12-------12----12-------------12-------12----12-------------------
G|--12----12-------12-------------12----12-------12----------------------
D|-----------------------------------------------------------------------
A|-----------------------------------------------------------------------
E|-----------------------------------------------------------------------

E|-----------------17-------------------------14h15-14-------
B|-----------15-------15----15-------------15----------15----
G|--------14----14-------14-------------14----------------14-
D|-----------------------------------------------------------
A|-----------------------------------------------------------
E|-----------------------------------------------------------


E|-----------17-------------------------15-------------------------------------------------------------------
B|-----15-------15----15----------15-------15----15-------------------------15-------------------15----------
G|--15----15-------15----------15----15-------15----------------------16-------16----16----16-------16----16-
D|-----------------------------------------------------------------17----17-------17----17----17-------17----
A|-----------------------------------------------------------------------------------------------------------
E|-----------------------------------------------------------------------------------------------------------

Chorus:

Play along with song to find rhythm.

E|--7--------5--------3--------3--
B|--8--------7--------5--------3--
G|--9--------7--------5--------4--
D|--9--------7--------5--------5--
A|--7--------5--------3--------5--
E|-----------------------------3--

Chorus Riff:

E|--------------------------------------------------------------------
B|--------------------------------------------------------------------
G|-----9--7-----------------7--9-----------9--7-----------------------
D|-----------9--7--7---7h9-----------------------9--12-9---7h9--7-----
A|--7-----------------------------------7--------------------------10-
E|--------------------------------------------------------------------


tabs and chords, guitar tabs, music transcription, music technology, deep learning, music information retrieval, transcribe into tabs & chords, chordify, music renditions, songsterr, reverbnation, tabulature, bollywood chords, ultimate guitar, yousician, guitar lessons, acoustic guitar, electric guitar, guitar tuner, 911 tabs