Guitar Tabs for Rumpatom

(/) Slide Up  (\) Slide Down  (h) Hammer On  (p) Pull Off  (b) Bend (r) Release (v) Vibrato (x) Muted

Tabs for Song : 

More is still to be written for this one.

Intro

E|-----------------------------------
B|-----12-15-------------------------
G|--14-------11-9--11----------------
D|--------------------9--12-14-12-14-
A|-----------------------------------
E|-----------------------------------

Verse:

Here are the hord shapes I use.
The 7-7-7 chord i just put my pinky on the E string instead of chaning the shape of the chord.

E|--5--7--
B|--7--7--
G|--7--7--
D|--------
A|--------
E|--------

The chord is picked like this:

E|-----------5-----------------7-----
B|-----7--------7--------7--------7--
G|--7-----7-----------7-----7--------
D|-----------------------------------
A|-----------------------------------
E|-----------------------------------

Paste any tab in acousterr's tab maker and we'll play it !!!
Now supports capo and sound effects for vibrato/pull-off/hammer/bends/mutes etc !!! Checkout help section
tabs and chords, guitar tabs, music contests, music covers, songsterr, reverbnation, renditions, tabulature, bollywood chords, ultimate guitar, yousician, guitar lessons, torrins, fender, gibson, acoustic guitar, electric guitar, youtube covers, gootar, guitar tuner, A-Z tabs, 911 tabs