Guitar Tabs for Gerua

Tabs for Song :Gerua

dhoop se nikal ke
E|--------------------------
B|--3-----2-----0--2--------
G|--------------------------
D|--------------------4-----
A|--------------------------
E|--------------------------

chhaanv se phisal ke
E|--------------------------
B|--------------------------
G|--2-----0-----0-----------
D|-----------4--------0-----
A|--------------------------
E|--------------------------

hum mile jahan per
E|--------0--------------------
B|-----------3--2--2-----3-----
G|-----------------------------
D|--0--------------------------
A|-----------------------------
E|-----------------------------

lamha tham gya
E|--------0--------------
B|--0--------3--0--2-----
G|-----------------------
D|-----------------------
A|-----------------------
E|-----------------------

asmaan phighal ke
E|--------------------------
B|--3-----2--0--2-----------
G|--------------------------
D|--------------------4-----
A|--------------------------
E|--------------------------

shishe mein dhal ke
E|--------------------------
B|--------------------------
G|--2-----0-----0-----------
D|-----------4--------0-----
A|--------------------------
E|--------------------------

jam gya to tera 
E|--------0-----------------
B|-----------3--2--2--3-----
G|--------------------------
D|--0-----------------------
A|--------------------------
E|--------------------------

chehra ban gya
E|--------0--------------
B|--0--------3--0--2-----
G|-----------------------
D|-----------------------
A|-----------------------
E|-----------------------

duniya bhula ke tumse mila hu
E|-----------0--3--2--------------0--3--2-----
B|--2-----3--------------2-----3--------------
G|--------------------------------------------
D|--------------------------------------------
A|--------------------------------------------
E|--------------------------------------------

nikli hai dil se ye dua
E|--------0-----3-----2-----0--0--0--2--0--2-----
B|--2--3-----------------3-----------------------
G|-----------------------------------------------
D|-----------------------------------------------
A|-----------------------------------------------
E|-----------------------------------------------

rang de tu mohe gerua
E|-----2--0--3--0--------------------
B|--3-----------------2--3-----3-----
G|-----------------------------------
D|-----------------------------------
A|-----------------------------------
E|-----------------------------------

ranjhe ki dil se hai dua
E|-----2--0--3--2-----------------
B|--3--------------2-----3--3-----
G|--------------------------------
D|--------------------------------
A|--------------------------------
E|--------------------------------

rang de tu mohe gerua
E|-----2--0--3--0--------------------
B|--3-----------------2--3-----3-----
G|-----------------------------------
D|-----------------------------------
A|-----------------------------------
E|-----------------------------------

rajhe ki dil se hai dua
E|-----2--0--3--2--------0--0--
B|--3--------------3-----------
G|-----------------------------
D|-----------------------------
A|-----------------------------
E|-----------------------------


tabs and chords, guitar tabs, music contests, music covers, songsterr, reverbnation, renditions, tabulature, bollywood chords, ultimate guitar, yousician, guitar lessons, torrins, fender, gibson, acoustic guitar, electric guitar, youtube covers, gootar, guitar tuner, A-Z tabs, 911 tabs