Bass Tabs for Foo Fighters - Rope

Foo Fighters - Rope

Intro
G|--------------------
D|--------------------
A|------------7p5--0--
E|---7p5--0-----------

Verse
G|--------------------------------------------------------------------
D|-----------------------------7--------------------------------------
A|-----------5--------9--9--9-----9--5--5--5--3--5--5--5--5--3--5-----
E|--7--7--7-----7--------------------------------------------------5--

G|--------------------------------------------------------------------------
D|--------------------------7-----------------------------------------------
A|-----------5-----9--9--9-----9--5--5--5--3--5--5--5--5------------7p-5p0--
E|--7--7--7-----7------------------------------------------7p-5p0-----------

Chorus
G|-------------------------------------------------------------------|
D|-------------------------------------------------------------------|
A|---------------7--7-7--7-7---2--2-2--2-2---------------------------|
E|-3--3-3--0-5-7---------------------------0-5--5-5--5-5-2-----------|

G|-------------------------------------------------------------------|
D|------------------9------------------------------------------------|
A|---------------7----7--7-7-0-2--2-2--2-5----------4-5--------------|
E|-3--3-3--0-5-7---------------------------0-5--5-5-----0-2----------|

G|-------------------------------------------------------------------|
D|------------------9------------------------------------------------|
A|---------------7----7--7-7-0-2--2-2--2-5---------------------------|
E|-3--3-3--0-5-7---------------------------0-5--5-5--5-0-2-----------|

G|-------------------------------------------------------------------|
D|-------------------------------------------------------------------|
A|-------------------------------------------------------------------|
E|-3-333-3--3-3-3-4-444-4--4-4-0-5-555-5--5-5-0-6-666-6--6-14\-------|

Pos-Chorus

G|-----------------------------------------------------------
D|-----------------------7-----------------------------------
A|-----------5-----9--9-----9--5--5--3--5--5--5--5--3--5--0--
E|--7--7--7-----7--------------------------------------------

G|-----------------------------------------------------------------------------
D|--------------------------7--------------------------------------------------
A|-----------5-----9--9--9-----9--------------------------------------7--5--0--
E|--7--7--7-----7-----------------1--1--1--0--1--1--1--1-----7--5--0-----------

Pos 2nd Chorus
G|-----------------
D|----------------- 4x
A|-----------5--7--
E|--7--5--7--------

G|--------------------------------------------
D|-------------------------------------------- 4x
A|-----------5--7-----------------------------
E|--7--5--7--------7--5--3--3--5--0--0--0--0--

G|--------------------------------------------
D|-------------------------------------------- 4x
A|-----------5--7-----------------------------
E|--7--5--7--------12\3--3--5--0--0--0--0--0--

Outro
G|--------------------------------------------
D|--------------------------------------------
A|-----------------------------------7--5--0--
E|--------------------------7--5--0-----------

G|-----------------------------------------------------------------------
D|--------------------------7--------------------------------------------
A|-----------5-----9--9--9-----9--5--5--5--3--5--5--5-----------7--5--0--
E|--7--7--7-----7--------------------------------------7--5--0-----------
tabs and chords, guitar tabs, music transcription, music technology, deep learning, music information retrieval, transcribe into tabs & chords, chordify, music renditions, songsterr, reverbnation, tabulature, bollywood chords, ultimate guitar, yousician, guitar lessons, acoustic guitar, electric guitar, guitar tuner, 911 tabs