Bass Tabs for Foo Fighters - Generator

Foo Fighters - Generator

Intro
G|-----------------------------
D|-----------------------------
A|--------0-----------------0--
E|--0--0--------------0--0-----

G|--------------------------------------------------------------------------------------------
D|--------------------------------------------------------------------------------------------
A|--0--0--0--0--0--0--0--0--0--0--------------------------------------------------------------
E|--------------------------------0--0--0--0--2--2--2--2--2--2--2--2--2--2--2--2--0--0--0--0--

G|--------------------------------------------------------------------------------------------
D|--------------------------------------------------------------------------------------------
A|--0--0--0--0--0--0--0--0--0--0--0-----------------------------------5--5--5--5--5--5--5--5--
E|-----------------------------------0--0--0--2--2--2--2--2--2--2--2--------------------------

1st Verse
G|-----------------------------------------------------------
D|-----------------------------------------------------------
A|--0-----------------------5-----5--7--8--7--5--4--4--------
E|--------0--0--2-----0--0-----------------------------7--5--

All Verses
G|-----------------------------------------------------------------------
D|-----------------------------------------------------------------------
A|--0-----------------------5-----4--2---4b5--4--2-----4--2---4b5--4--2--
E|--------0--0--2-----0--0-----------------------------------------------

1st Pos Verses
G|--------------------------------------
D|--4--2-----------------------4--7-----
A|--------4--5-----5--5-----5--------0--
E|--------------------------------------

4th  & 6th Verse
G|--------------------------------------------------------------------------------------------
D|--------------------------------------------------------------------------------------------
A|--0-----------------------7--5-----5---7b8--7--5--4-----4--2---4b5--4--2--4--2---4b5--4--2--
E|--------0--0--2------5h7--------------------------------------------------------------------

Chorus
G|-----------------------------------------------------
D|-----------------------------------------------------
A|--0--0--0--0--0--0--0--0--0--0--0--0--0--0--0--0--0--
E|-----------------------------------------------------

G|--------------------------------------------------
D|--3--3--3--3--------------------------------------
A|--------------------------------------------------
E|--------------1--1--1--1--1--1--1--1--1--1--1--1--

G|-----------------------------------------------
D|--4--4--4--4-----------------0--2--4--2--------
A|--------------------0--2--4--------------4--2--
E|--------------2--4-----------------------------

G|-----------------------------------
D|--5------5/7------7/9------9/12----
A|-----5--------5-----------------12\
E|-----------------------------------

G|--------7--------7-----------------------------------
D|-----7------7h9-----9--7-----------------------------
A|--5------------------------9\5--7--8--7--5-----------
E|-----------------------------------------------0--0--

Pos-Chorus
G|-----------------------------------
D|--4--2-----------------------------
A|--------4--5-----9--7-----------0--
E|-----------------------9--7--0-----

Bridge
G|--------------------------------
D|--------------------------------
A|--7--7--5--4--------------4-----
E|--------------7--5--4--7-----0--

Final
G|-----------------------------------------------------------------------
D|-----------------------------------------------------------------------
A|--0--0--0--0--0--0--0--0--------0--0--0--0--0--0--0--0--0--0--------0--
E|--------------------------0--0--------------------------------0--0-----


tabs and chords, guitar tabs, music transcription, music technology, deep learning, music information retrieval, transcribe into tabs & chords, chordify, music renditions, songsterr, reverbnation, tabulature, bollywood chords, ultimate guitar, yousician, guitar lessons, acoustic guitar, electric guitar, guitar tuner, 911 tabs