Bass Tabs for Foo Fighters - Arlandria

Foo Fighters - Arlandria

Intro
G|--------------------------------------------------------------------------------------
D|--------6--4--6-----------6--4--------------6--4--6-----------6--4--6----------------- 
A|--4--7-----------4--4--7--------7--4--4--7-----------4--4--7-----------7---7/14----4--
E|--------------------------------------------------------------------------------------

1st Verse has NO BASS

Pre-Chorus
G|--------------------------------------------------
D|-------------------------------------------------- 2X
A|--4--4--4-----------------------------------------
E|-----------5--5--5--5--5--0--0--0--2--2--2--2--2--

Chorus
G|-----------------------------------------------------------------------------------------------
D|-----------------------------------------------------------------------------------------------
A|--4--4--4--4--4--4--4-----------------------------------------------------2--2--2--2-----------
E|-----------------------0--5--5--5--5--5--5--5--7--0--0--0--0--0--0--0--0--------------2--2--2--

G|-----------------------------------------------------------------------------------------------
D|-----------------------------------------------------------------------------------------------
A|--4--4--4--4--4--4--4--------------------------------------------------2--2--2--2--3--3--3--3--
E|-----------------------0--5--5--5--5--5--5--5--7--0--0--0--0--0--0--0--------------------------

G|-----------------------------------------------------------------------------------------------
D|-----------------------------------------------------------------------------------------------
A|--4--4--4--4--4--4--4--------------------------------------------------2--2--2--2--3--3--3--3--
E|-----------------------0--2--2--5--2--0--2--4--5--5--5--5--5--5--5--5--------------------------

G|-----------------------------------------------------------------------------------------------
D|-----------------------------------------------------------------------------------------------
A|--4--4--4--4--4--4--4--2-----------------------------------------------2--2--2--2--3--3--3--3--
E|--------------------------3--2--2--5--2--0--2--4--5--5--5--5--5--5--5--------------------------

Pos-Chorus
G|-----------------------------------------------------------------
D|-----------------------------------------------------------------
A|--4-----4-----------------------4-----4--------------------------
E|-----5-----5-----0--0--0--2--------5-----5-----0--0---2h4--2~----

3rd Chorus
G|-----------------------------------------------------------------------------------------------
D|-----------------------------------------------------------------------------------------------
A|--4--4--4--4--4--4--4-----------------------------------------------------2--2--2--2-----------
E|-----------------------0--5--5--5--5--5--5--5--7--0--0--0--0--0--0--0--0--------------2--2--2--

G|--------------------------------------------------------------------------------------------------
D|--------------------------------------------------------------------------------------------------
A|--4--4--4--4--4--4--4--------------------------------------------------2--2--2--2--3--3--3--3---4\
E|-----------------------0--5--5--5--5--5--5--5--7--0--0--0--0--0--0--0-----------------------------

Crescendo
G|--------------------------------------------------
D|-------------------------------------------------- 6X
A|--4--4--4-----------------------------------------
E|-----------5--5--5--5--5--0--0--0--2--2--2--2--2--
tabs and chords, guitar tabs, music transcription, music technology, deep learning, music information retrieval, transcribe into tabs & chords, chordify, music renditions, songsterr, reverbnation, tabulature, bollywood chords, ultimate guitar, yousician, guitar lessons, acoustic guitar, electric guitar, guitar tuner, 911 tabs