Bass Tabs for Fierce - Bass

(/) Slide Up  (\) Slide Down  (h) Hammer On  (p) Pull Off  (b) Bend (r) Release (v) Vibrato (x) Muted

Tabs for Song : 

Song lyrics here
G|------------------------------6h-7p6-----4--------------------
D|--------------------------------------7-----5-----------------
A|---0\10----10-5---2\14-12-------------------------5---2\12\0--
E|-----------------------------------------------3--------------

G|-----------------------------------------------------------------------------------------------------
D|-----------------------------------------------------------------------------------------------------
A|-----------------------------------------------------5--5--5--5--5--5--5--5--5--5--5--5--5--5--5--5--
E|--3--3--3--3--3--3--3--3--3--3--3--3--3--3--3--3-----------------------------------------------------

G|-----------------------------------------------------------------------------------------------------1/16allx2
D|-----------------------------------------------------------------------------------------------------
A|--2--2--2--2--2--2--2--2--2--2--2--2--2--2--2--2-----0--0--0--0--0--0--0--0--0--0--0--0--0--0--0--0--
E|-----------------------------------------------------------------------------------------------------

G|--
D|--
A|--
E|--

Song lyrics here
G|--
D|--
A|--
E|--

Paste any tab in acousterr's tab maker and we'll play it !!!
Now supports capo and sound effects for vibrato/pull-off/hammer/bends/mutes etc !!! Checkout help section
tabs and chords, guitar tabs, music transcription, music technology, deep learning, music information retrieval, transcribe into tabs & chords, chordify, music renditions, songsterr, reverbnation, tabulature, bollywood chords, ultimate guitar, yousician, guitar lessons, acoustic guitar, electric guitar, guitar tuner, 911 tabs