Guitar Tabs for Fierce [d]

(/) Slide Up  (\) Slide Down  (h) Hammer On  (p) Pull Off  (b) Bend (r) Release (v) Vibrato (x) Muted

Fierce [D] 

[Intro]
e|-----7--------------7-------|
B|--------10-8--7--------10---|
G|--7--------------7--------6-|
D|----------------------------|
A|----------------------------|
E|----------------------------|

[Chorus]
e|----------------|
B|--8--7--7--10---|
G|--7--7--7--9----|
D|-----7--9--7----|
A|----------------|
E|----------------|

[Verse]
e|-------------------------------------------------|
B|--------8-----------7-----------7-----------10---|
G|-----7-----7-----7-----7-----7-----7-----9-----9-|
D|--9-----------7-----------9-----------7----------|
A|-------------------------------------------------|
E|-------------------------------------------------|

[Outro]
e|-----7--------------7-----------------7--------------7----------|
B|--------10-8--7--------10-------7--------10-8--7--------10------|
G|--7--------------7--------6--9-----7--------------7--------6--7-|
D|----------------------------------------------------------------|
A|----------------------------------------------------------------|
E|----------------------------------------------------------------|
tabs and chords, guitar tabs, music transcription, music technology, deep learning, music information retrieval, transcribe into tabs & chords, chordify, music renditions, songsterr, reverbnation, tabulature, bollywood chords, ultimate guitar, yousician, guitar lessons, acoustic guitar, electric guitar, guitar tuner, 911 tabs