Guitar Tabs for Ferhat

(/) Slide Up  (\) Slide Down  (h) Hammer On  (p) Pull Off  (b) Bend (r) Release (v) Vibrato (x) Muted

Tabs & Chords
BPM : 125.0
Check Track 2 for Chord Positions 

    G#m                                    F#                                                 
E|--------------------------------------------------2--------------2-----------2--------------
B|--------------------------------------------------------------------------------------------
G|--1-----1-----------3--1-----------------------------------------------1--------1--0--1--1--
D|--------------------------------1--2-----3--4-----------4-----4-----------------------------
A|-----------------------------0--------------------------------------------------------------
E|--------------4-----------------------------------------------------------------------------

                                              G#m         Am             G#m                  
E|--------------------------------------2-----------------------------------------------------
B|-----------------------------------------------------------------4--------------------------
G|--3--1-----1--3--------0-----3-----1-----------1--------2-----------------1-----------------
D|-----------------4-----------------------2--1-----1--------1--------------------------1--1--
A|-----------------------------------------------------------------------0--------0--4--------
E|--------------------------------------------------------------------------------------------

                                                                   Am             G#m         
E|-----------------------------------------------2--------------------------------------4--2--
B|--------------------------------------0--0--------------------------------------0-----------
G|--------------1-----------1-----1-----------3-----0-----3--1--------------------------------
D|--2-----4--------4--2--------------------------------4--------------------1-----------------
A|--------------------------------------------------------------------0-----------------------
E|-----------------------------------------------------------------4-----4--------------------

                            
E|--1--------------4-----4--
B|-----4-----3--------------
G|--------------------------
D|--------------------------
A|--------------------------
E|--------------------------

Guitar Tabs for Ferhat






    G#m                                    F#                                                 
E|--4--------------------------------------2--------------------------------------------------
B|--4--------------------------------------2--------------------------------------------------
G|--4--------------------------------------3--------------------------------------------------
D|--6--------------------------------------4--------------------------------------------------
A|--6--------------------------------------4--------------------------------------------------
E|--4--------------------------------------2--------------------------------------------------

                                              G#m         Am             G#m                  
E|--------------------------------------------4-----------0--------------4--------------------
B|--------------------------------------------4-----------1--------------4--------------------
G|--------------------------------------------4-----------2--------------4--------------------
D|--------------------------------------------6-----------2--------------6--------------------
A|--------------------------------------------6-----------0--------------6--------------------
E|--------------------------------------------4--------------------------4--------------------

                                                                   Am             G#m         
E|-----------------------------------------------------------------0--------------4-----------
B|-----------------------------------------------------------------1--------------4-----------
G|-----------------------------------------------------------------2--------------4-----------
D|-----------------------------------------------------------------2--------------6-----------
A|-----------------------------------------------------------------0--------------6-----------
E|--------------------------------------------------------------------------------4-----------

                            
E|--------------------------
B|--------------------------
G|--------------------------
D|--------------------------
A|--------------------------
E|--------------------------

tabs and chords, guitar tabs, music transcription, music technology, deep learning, music information retrieval, transcribe into tabs & chords, chordify, music renditions, songsterr, reverbnation, tabulature, bollywood chords, ultimate guitar, yousician, guitar lessons, acoustic guitar, electric guitar, guitar tuner, 911 tabs